#----------------------------------PLEASE NOTE---------------------------------#
#This file is the author's own work and represents their interpretation of the #
#song. You may only use this file for private study, scholarship, or research. #
#------------------------------------------------------------------------------##
From: [email protected] (Martin Hermans)
Subject: TAB: Got Me Under Pressure by ZZ Top

Here is the beginning of Got Me Under Pressure 

---------------|
---------------|
-9-97---9-97-|
-9-97-7-9-97-|
-------7-------|
---------------|

-----------------|---------------|
-----------------|---------------|
-----------------|---97---9-97-|	repeat this a few times
-9---9-9-9---9-9-|-9-97-7-9-97-|
-7---7-7-7---7-7-|-7-----7-------|
-----------------|---------------|
(palm mute this E5)


--------------|--------------------|
--------------|--------------------|
--------------|--------------------|
-0---0------0-|--0-----------------|	then repeating this four times brings
-0---0------0-|--0-------------2---|	you up to the first verse
--------------|------0--0--3-------|

If anyone wants another part of this song  ( one of the solos, the rhythm
guitars, or the verse leads, etc) just mail me at [email protected]




Текст, аккорды и табулатура для песни "Got Me Under Pressure", исполняет "ZZ Top".
Используемые в песне аккорды можно найти в разделе Как брать аккорды. Аккорды для шестиструнной гитары. Другие песни можно найти на нашем сайте, воспользовавшись алфавитным указателем вверху страницы.


 
Ошибка в тексте? Выделите ошибку и нажмите Ctrl+Enter