E--------------------------------
H--------------------------------
G----9-11-12~-11-9-7~--9/11/9-9~-
D-9-------------------9----------
A--------------------------------
E--------------------------------
2 раза

E------------------------------------
H---10-12-13~-12-13-15-13~-12-10-12~-
G-9----------------------------------
D------------------------------------
A------------------------------------
E------------------------------------

E--------------------------------
H--------------------------------
G----9-11-12~-11-9-7~--9/11/9-9~-
D-9-------------------9----------
A--------------------------------
E--------------------------------

E-----------------------------------------------------
H-12-12-----------------------------------------------
G-------14-14--12-12-11--11-9-12~-10-9-7~---9/11/9-9~-
D-----------------------------------------9-----------
A-----------------------------------------------------
E-----------------------------------------------------

    Это пока все...


Текст, аккорды и табулатура для песни "Придорожное кафе", исполняет "Зинчук Виктор".
Используемые в песне аккорды можно найти в разделе Как брать аккорды. Аккорды для шестиструнной гитары. Другие песни можно найти на нашем сайте, воспользовавшись алфавитным указателем вверху страницы.


Слушать онлайн Придорожное Кафе


Виктор ЗинчукПридорожное Кафе на Яндекс.Музыке


 
Ошибка в тексте? Выделите ошибку и нажмите Ctrl+Enter