s-(staccato)
    s  s  s
E|----------
B||-12-10-12------------
G||----------11-9Н11----
D|-------9--      2 раза
A|----------
D|----------

E||----9-10--9h10-9-9--9-7h9-7-7-7-5h7-5-5- 7- при повторе 9-
B||-12------------------------------------- --              -
G------------------ --              -
D------------------ --
A------------------ --
D------------------ --

                                 Это два раза 

     s  s  s
E||--14-12-14--------------
B|14-12h14-----
G|---------11--        2 раза
D--
A--
D--

E||--14-16-17--16h17--16—16-16-14h16—14-14-14-12h14-12-12-14--
B-------------------------------------
G-------------------------------------
D-------------------------------------
A-------------------------------------
D-------------------------------------



Текст, аккорды и табулатура для песни "Mix №1", исполняет "Зинчук Виктор".
Используемые в песне аккорды можно найти в разделе Как брать аккорды. Аккорды для шестиструнной гитары. Другие песни можно найти на нашем сайте, воспользовавшись алфавитным указателем вверху страницы.


 
Ошибка в тексте? Выделите ошибку и нажмите Ctrl+Enter