E-0-0-5-7-8-5-10---10-10-8-7-5---------8-8-7-5------------7-7-5--------------
H----------------6-------------8-6-5-----------8-7-5------------8-6-5--------
G------------------------------------5---------------7-4--------------7-5----
D-------------------------------------------------------------------------7--
A----------------------------------------------------------------------------
E----------------------------------------------------------------------------
2 раза



E-0-5-5-5-5-------5-7-8-7-------0-5-5-5-5-5-5-4-5-7----------------
H-----------8-6-----------8-5-----------------------5-6-5----------
G---------------7-------------5---------------------------7-5-4----
D---------------------------------------------------------------7--
A------------------------------------------------------------------
E------------------------------------------------------------------
2 раза


Текст, аккорды и табулатура для песни "Лолита", исполняет "Зинчук Виктор".
Используемые в песне аккорды можно найти в разделе Как брать аккорды. Аккорды для шестиструнной гитары. Другие песни можно найти на нашем сайте, воспользовавшись алфавитным указателем вверху страницы.


Слушать онлайн Лолита


Виктор ЗинчукЛолита на Яндекс.Музыке


 
Ошибка в тексте? Выделите ошибку и нажмите Ctrl+Enter