Вообще, это композиция Н.Паганини. Он играет ее намного медленнее.
                                                                         
E||------------------|-----------------|-----------------|-------------||
B||------------------|-----------------|-----------------|-------------||
G||*-----------------|--9--------------|-----------------|--9/--------*||
D||*--7---7-7h10h9h7-|-----------------|--7---7-7h10h9h7-|-------2----*||
A||------------------|------7-7h11h9h7-|-----------------|-------------||
E||------------------|-----------------|-----------------|-------------||
                                                                     
----------------------|----------------------|----------------------|
----------------------|----------------------|----------------------|
--14---14-14h15h14h12-|----------------------|--12---12-12h14h12h10-|
----------------------|--15---12-12h15h14h12-|----------------------|
----------------------|----------------------|----------------------|
----------------------|----------------------|----------------------|
                                                                              
----------------------|-------------------|-----------------|----------------|
----------------------|-------------------|-----------------|----------------|
----------------------|--10---------------|--9--------------|------8---9h7---|
--14---10-10h14h12h10-|-------9-9h12h10h9-|------7-7h10h9h7-|--------------9-|
----------------------|-------------------|-----------------|--8-----7-------|
----------------------|-------------------|-----------------|----------------|
                                                                   
------------||------8-12h8---------------|------------------------|
------------||---10--------10------------|----9-12h9--------------|
------------||*---------------9----------|--9--------9------------|
--7/--------||*------------------10------|-------------9----------|
-------0----||-----------------------12--|----------------11------|
------------||---------------------------|--------------------12--|
                                                                        
-----8-12h8---------------|-------------||-----12-17h12----------------|
--10--------10------------|-------------||--14----------14-------------|
---------------9----------|--9/--------*||-----------------14----------|
------------------10------|-------2----*||---------------------14------|
----------------------12--|-------------||-------------------------16--|
--------------------------|-------------||-----------------------------|
                                                            
---------------------10--13--|-----10-15h10----------------|
-----------------10----------|--12----------12-------------|
--------------10-------------|-----------------12----------|
-----------12----------------|---------------------12------|
--------12-------------------|-------------------------14--|
--10h13----------------------|-----------------------------|
                                                                               
------------------8--12--|--13h10h7----------------|--12h8--------------------|
---------------8---------|----------9--------------|-------10-----------------|
-------------9-----------|------------10h7---------|----------9---------------|
----------10-------------|------------------9------|------------10------------|
-------10----------------|---------------------11--|---------------12---------|
--8h12-------------------|-------------------------|-------------------12h-8--|
                                                                               
-----------------------|------------||--------------------|-------------------|
-----------------------|------------||--------------------|-------------------|
---------7-10----9-----|------------||*-----------------7-|--9-8-9-8-9-7------|
-------9------------6--|--7/--------||*--7-6-7-6-7-9-10---|--------------10-9-|
-----8--------7--------|-------0----||--------------------|-------------------|
--10-------------------|------------||--------------------|-------------------|
                                                                  
-------------------|-----------------||--------------------------|
-------------------|-----------------||--------------------------|
-----------------7-|--9-8-9-8-9/----*||--14-13-14-13-14-12-------|
--7-6-7-6-7-9-10---|-------------2--*||--------------------15-14-|
-------------------|-----------------||--------------------------|
-------------------|-----------------||--------------------------|
                                                                               
--------------------------|--------------------------|------------------------|
--------------------------|--------------------------|------------------------|
--------------------------|--12-11-12-11-12-10-------|------------------------|
--12-11-12-11-12-14-15-12-|--------------------14-12-|--10-9-10-9-10-12-14-10-|
--------------------------|--------------------------|------------------------|
--------------------------|--------------------------|------------------------|
                                                              
-----------------------|----------------|--------------------|
-----------------------|----------------|--------------------|
--10-9-10-9-10---------|--9-8-----------|------------10-9----|
---------------12-10-9-|---------10-9-7-|--9-8-9-8-9---------|
-----------------------|----------------|-----------------11-|
-----------------------|----------------|--------------------|
                                                                     
--------------------||---------------|---------12----|--------------|
--------------------||---13------10--|--9--12--------|--13------10--|
--------------------||*--------------|---------9-----|--------------|
--------------------||*--10------7---|--6--9---------|--10------7---|
--12-11-12-11-12----||---------------|---------7-----|--------------|
--------------------||---8-------5---|--4--7---------|--8-------5---|
                                                                    
------11--13--12---||--17------9--|--10--12--13--14--|--15------7--|
--12---------------||-------------|------------------|-------------|
------8---10--9---*||--14------6--|--7---9---10--11--|--12------4--|
--9---------------*||-------------|------------------|-------------|
------6---8---7----||--12------4--|--5---7---8---9---|--10------2--|
--7----------------||-------------|------------------|-------------|
                                                                  
--8--10--11--12--|--13----------|--12----------|------13--12-----|
-----------------|----------12--|----------10--|--12----------9--|
--5--7---8---9---|--10----------|--9-----------|------10--9------|
-----------------|----------9---|----------7---|--9-----------6--|
--3--5---6---7---|--8-----------|--7-----------|------8---7------|
-----------------|----------7---|----------5---|--7-----------4--|
                                                                       
--------------||------17-16-15-------------|--------------------------|
--12----10----||---------------19-18-17-16-|--18-17-16-18-17----------|
--------------||*--14----------------------|-----------------16-------|
--9-----7-----||*--------------------------|--------------------18-14-|
--------------||---------------------------|--------------------------|
--7-----5-----||---------------------------|--------------------------|
                                                                              
-----17-16-15-------------|----------------------||-----17-16-15-14----------|
--------------19-18-17-16-|--18-17-16-18-17/-5---||-----------------18-17-15-|
--14----------------------|---------------------*||--14----------------------|
--------------------------|---------------------*||--------------------------|
--------------------------|----------------------||--------------------------|
--------------------------|----------------------||--------------------------|
                                                      
--------------------------|-----15-14-13-12----------|
--14-17----14-15----------|-----------------16-15-13-|
--------14-------14-------|--12----------------------|
--------------------15----|--------------------------|
-----------------------17-|--------------------------|
--------------------------|--------------------------|
                                                                               
--------------------------|-----13-12-11-10----------|----12-11-10-9----------|
--12-15----12-13----------|-----------------14-13-12-|---------------13-12-10-|
--------12-------12-------|--10----------------------|--9---------------------|
--------------------14----|--------------------------|------------------------|
-----------------------15-|--------------------------|------------------------|
--------------------------|--------------------------|------------------------|
                                                                          
--------------------------|-----17-12---------------||-------------------|
--------------------------|-----------13------------||-------------------|
--------------------------|--------------14-9-------||*------------------|
--15-14-13-12-11----------|-------------------10----||*-----15h3-14h2h---|
-----------------15-14-11-|--12------------------12h||-------------------|
--------------------------|-------------------------||---5------------5h-|
                                                                             
------------------|------------------|------------------||-----18h6-17h5h---|
-----16h4-17h5h---|------------------|-----16h4-17h5----||------------------|
------------------|------------------|-----------------*||------------------|
------------------|-----15h3-14h2h---|-----------------*||------------------|
------------------|------------------|------------------||------------------|
--4------------4h-|--5------------5h-|--4---------------||--9------------9h-|
                                                                             
------------------|------------------|------------------|-------------------|
------------------|-----21h9-20h8h---|------------------|-------------------|
------------------|------------------|------------------|-------------------|
------------------|------------------|------------------|-----22h10-21h9h---|
--5--19h7-20h8h---|------------------|-----18h6-19h7h---|--5-------------5h-|
---------------8--|--7------------7h-|--8------------8h-|-------------------|
                                                                           
------------------|------------------|-----------------||---12------10-8--|
------------------|-----18h6-17h5h---|-----------------||---13------12-10-|
-----18h6-19h7h---|------------------|-----17h5--------||*----------------|
------------------|------------------|----------19h7---||*----------------|
--7------------8h-|--5------------7h-|-----------------||-----------------|
------------------|------------------|--5--------------||-----------------|
                                                                     
--7------------------|--------------|----------------||-------------|
--9-10-9-------------|--------------|----------------||-------------|
----10-9-10-9--7-5-4-|--5------7-9--|--7-5-4--------*||--6------6-9-|
---------12-10-9-7-6-|--7------9-10-|--9-7-6-7-6----*||-------------|
---------------------|--------------|--------8-7-----||-------------|
---------------------|--------------|----------------||--5------7-9-|
                                                                             
------------9-10-12-13-|-------------|-----------7-8-10-12-|--13------12-10-|
--6-8-10-12------------|-------------|--5-6-8-10-----------|----------------|
-----------------------|--4------5-7-|---------------------|----------------|
------------7-9--11-12-|-------------|-----------5-7-9--10-|--12------10-9--|
--5-7-8--10------------|-------------|--3-5-7-8------------|----------------|
-----------------------|--3------5-7-|---------------------|----------------|
                                                                            
--12------10-8-|-----------------|------------||---12h13h12----------------|
---------------|--6--5-----------|------------||------------13----10h11h10-|
---------------|-------7-5-5-4-4-|--5/---2----||*--------------------------|
--10------9--7-|-----------7---6-|--7---------||*--------------------------|
---------------|--5--7-8-7---7---|-------0----||---------------------------|
---------------|-----------------|------------||---------------------------|
                                                      
-----------------------------|--12h13h12-------------|
--12h13h12-9h10h9------------|-----------13----------|
------------------9h10h9-----|-----------------------|
-----------------------------|-----------------------|
-----------------------------|-----------------------|
-------------------------12--|-----------------5h7h5-|
                                                         
----------------------------||--12h13h12----------------|
----------------------------||-----------14----10h11h10-|
---------------------------*||--------------------------|
---------------------------*||--------------------------|
--------7h8h7-11h12h11------||--------------------------|
--7h8h7----------------12---||--------------------------|
                                                           
--10h12h10-----------------------|--10h12h10--------------|
---------------------------------|-----------12----8h10h8-|
---------------------------------|------------------------|
-----------7h8h7-----------------|------------------------|
-----------------8h10h8----------|------------------------|
------------------------10h12h10-|------------------------|
                                                                               
--8h10h8--------------------|--10h12h10-13-------------|--8h10h8-12-----------|
----------------------------|--------------------------|----------------------|
----------------------------|--------------------------|----------------------|
---------5h7h5--------------|--------------------------|----------------------|
---------------7h8h7--------|--------------------------|----------------------|
---------------------8h10h8-|-----------------10h12h10-|---------------8h10h8-|
                                                                    
--10h12h10-------7h8h7-------|--------5h7h5------||---0--0---0--0--|
-----------------------------|-------------------||----------------|
-----------------------------|-------------------||*--5--9---7--5--|
-----------------------------|-------------------||*--7--10--9--7--|
-----------------------------|--------------0----||----------------|
-----------7h8h7-------4h5h4-|--5h7h5------------||----------------|
                                                                 
--0--7--7-----|--0--0---0--0--|--0-------------||--0--0--0---0--|
--0--------0--|---------------|--0--10--9------||---------------|
--------------|--5--9---7--5--|-----8---9--9--*||--6--7--9---6--|
--6--9--7--6--|--7--10--9--7--|--6---------9--*||--7--9--11--7--|
-----7--9-----|---------------|-----8---7--7---||---------------|
--------------|---------------|----------------||---------------|
                                                                               
--10--12--13--10--|--------------|--0--1--3--0--|--------------|--------------|
------------------|--0--1--3--0--|--------------|--6--3--5--6--|--5--3--1--2--|
--10--12--14--10--|--------------|--0--0--0--0--|--4--4--4--4--|--5--4--2--0--|
--0---0---0---0---|--0--2--3--0--|-----0--2-----|--0--0--0--0--|--------------|
------------------|--------------|--3--------3--|--------------|--3--2--0--0--|
------------------|--3--3--3--3--|--------------|--------------|--------------|
                                                                           
-----5--5--4--|--5---------||-----------------------|---------------------|
--3--------0--|------------||---13h10h5-------------|--12h9h5-15t12h5h9h5-|
-----5--5-----|--5---------||*---------------9------|---------------------|
--3-----------|--7---------||*----------10h7h--10h7-|---------------------|
--5--6--7--7--|-------0----||-----------------------|---------------------|
--------------|------------||-----------------------|---------------------|
                                                                 
----------------------|-------------------||--12h9h5------------|
--13h10h5-------------|--12h9h5h----------||--------------------|
---------------9------|---------9--------*||---------9h6h-------|
----------10h7h--10h7-|-----------9h6h---*||-------------7------|
----------------------|---------------7---||---------------10h7-|
----------------------|-------------------||--------------------|
                                                                               
------10h5----------|--10h7h3h----------|------8h3---------|--7h5h4h1---------|
--------------------|---------6h3-------|------------------|----------5h3h1h0-|
-----------10h7-----|-------------------|----------9h5-----|------------------|
--------------------|-------------9h3h--|------------------|------------------|
--8h5-----------8h5-|-----------------5-|--7h3---------7h3-|------------------|
--------------------|-------------------|------------------|------------------|
                                                                          
------------------|---------------------|----------------||---5--------8-|
------------------|------10h6------12h9-|----------------||----------5---|
------------------|---------------------|--14h9h5h-------||*-------------|
--7h5h3h2h--------|---------------------|---------7------||*-------------|
----------5h3h2h0-|--8h5------11h7------|----------------||--------------|
------------------|---------------------|-----------5t---||--------------|
                                                                       
--7-5-------------|--5-----7-8-10-|--11---12-------||---------12-9----|
------9-7-5-7-9-5-|---------------|----------------||--10----------10-|
------------------|---------------|----------9----*||-----------------|
------------------|---------------|---------------*||-----------------|
------------------|---------------|----------------||-----------------|
------------------|---------------|----------------||-----------------|
                                                                     
------------------|--------10-7---|------------------|--------------|
--8---------------|--8----------8-|--6---------------|--6-----------|
----9-6-----------|---------------|----7-4-----------|--------7-----|
--------7-5-------|---------------|--------5-3-------|----------9-7-|
------------8-7-5-|---------------|------------7-5-3-|--------------|
------------------|---------------|------------------|--------------|
                                                                            
--------------------|------------7-----|-------------||--------------0-----|
--------------------|--------------9---|--10/--------||--------------0---5-|
--------------------|----7-----------9-|--------2----||*----9---9--------5-|
--6------------7----|------9-7-6-------|-------------||*----7---7----------|
----7--------7---10-|--8---------------|-------------||---7---7---11---7---|
------10-7-8--------|------------------|-------------||---9---8---7----5---|
                                                                              
-------------------------19-24-|-------------0-------|----12h7--------------||
--------------9-12-17-21-------|-------------12---10-|---------9------------||
------------9------------------|----9---9---------5--|-----------9---------*||
------2-6-9--------------------|----7---7------------|-------------9-------*||
----2--------------------------|--7---7---11----7----|--7------------11-----||
--4----------------------------|--8---8---7-----5----|--4---------------12--||
                                                               
--------------------------|-----------------------------17-22-|
-----14----14----15----17-|--------------------------18-------|
-----9-----9-----10----14-|-----------------10-14-19----------|
--------------------------|--------------12-------------------|
--12----12----12----16----|-----------12----------------------|
--9-----9-----10----12----|--13h10h13-------------------------|
                                                             
-----------------0--------|---------------------------15-20-|
-----12----12----13----15-|------------------------17-------|
-----7-----7-----------12-|----------------9-12-17----------|
--------------------------|-------------10------------------|
--10----10----10----14----|----------10---------------------|
--7-----7-----8-----10----|--12h8h12------------------------|
                                                                                
-----------------0-----0--|----------0-----0--------|----------5h8---------4h7-|
-----15----15----13----12-|----10----12----13----19-|--------5-----------5-----|
-----10----10-------------|----5-----------------17-|------5-----------4-------|
--------------------------|-------------------------|----7-----------6---------|
--14----14----12----11----|--7----11----12----15----|--7-----------7-----------|
--10----10----8-----7-----|--5----7-----0-----11----|--------------------------|
                                                        
|---------------5-----------|--------------5-----------|
|-------------5---5---------|------------5---5---------|
|*----------5-------5-------|----------6-------6-------|
|*--------7-----------7-----|--------7-----------7-----|
|-------7---------------7---|------7---------------7---|
|---5h8-------------------8-|--5h9-------------------9-|
                                                        
--------------------------17-22-|---------------------||
-----------------10----18-------|----3---6----9----3--||
--------------10----19----------|----4---7----10---4-*||
-----------12-------------------|--3---6---9-----3---*||
--------12----------------------|---------------------||
--10-13-------------------------|--4---7---10----4----||
                                                          
--------------5-----------|--------------5-9h5-----------|
------------5---5---------|------------5-------5---------|
----------6-------6-------|----------6-----------6-------|
--------7-----------7-----|--------7---------------7-----|
------7---------------7---|------7-------------------7---|
--5h9-------------------9-|--5h9-----------------------9-|
                                                                              
--------------5h9-12h9h5-----------|--------------5h9-12t17t12h9h5-----------|
------------5------------5---------|------------5------------------5---------|
----------6----------------6-------|----------6----------------------6-------|
--------7--------------------7-----|--------7--------------------------7-----|
------7------------------------7---|------7------------------------------7---|
--5h9----------------------------9-|--5h9----------------------------------9-|
                                                                   
--------------------------|--------------------------|--5--------||
--------------------------|--------------------------|--5--------||
--------------------------|--------------------------|--6--------||
--------------------------|--------------------------|--7--------||
--------------------------|--------------------------|--7--------||
--5h7h5h7h5h7h5h7h5h7h5h7h|--5h7h5h7h5h7h5h7h5h7h4h5-|--5--------||
              


Текст, аккорды и табулатура для песни "Каприс №24", исполняет "Зинчук Виктор".
Используемые в песне аккорды можно найти в разделе Как брать аккорды. Аккорды для шестиструнной гитары. Другие песни можно найти на нашем сайте, воспользовавшись алфавитным указателем вверху страницы.


 
Ошибка в тексте? Выделите ошибку и нажмите Ctrl+Enter