E---------2-3-2-3-5-5/7~-10-10-7~-10/12/10-7~-7-5-3-5-3-0-
B-0-5-4-5-------------------------------------------------
G---------------------------------------------------------
D---------------------------------------------------------
A---------------------------------------------------------
E---------------------------------------------------------

E---------2-3-2-3-5-5/7~-10-10-7~--7-10-12-10-12-10-7~----
B-0-5-4-5-------------------------------------------------
G---------------------------------------------------------
D---------------------------------------------------------
A---------------------------------------------------------
E---------------------------------------------------------

--7-5-3-5-3-0-
--------------
--------------
--------------
--------------
--------------

E--7-12--10-12-10-12-10-12--12-15-12-10--10-12-10-7--
B----------------------------------------------------
G----------------------------------------------------
D----------------------------------------------------
A----------------------------------------------------
E----------------------------------------------------
                                             два раза

--7-5-3-5-3-0-
--------------
--------------
--------------
--------------
--------------


Текст, аккорды и табулатура для песни "El Condor Pasa (Полет Орла)", исполняет "Зинчук Виктор".
Используемые в песне аккорды можно найти в разделе Как брать аккорды. Аккорды для шестиструнной гитары. Другие песни можно найти на нашем сайте, воспользовавшись алфавитным указателем вверху страницы.


 
Ошибка в тексте? Выделите ошибку и нажмите Ctrl+Enter