Перебор на всю песню:

   Em                Em/9        Em*
e|-------0---0---|-----------0-|-----0---0---|
B|-----0---0---0-|---------0---|---0---0---0-|
G|---0-----------|-------0-----|-0-----------|
D|-2-------------|-----4-------|-2-----------|
A|---------------|---2---------|-------------|
E|---------------|-0-----------|-------------|
      Am           Am/9        H7
e|-------0---0-|-----------0-|-------2---2---|
B|-----1---1---|---------1---|-----0---0---0-|
G|---2---------|-------4-----|---2-----------|
D|-2-----------|-----2-------|-1-------------|
A|-------------|---0---------|---------------|
E|-------------|-------------|---------------|

Em                Em   Em/9 Em*
Голос срывался c петель
Em              Am   Am/9 Em  
В дальние дали летел
Am                  Em  Em H7
Пробовал выйти  на крик
Em                 Am Em/9 Em*
Но застревал в пустоте

В космосе было темно
В комнате стыло окно
Голос стучался в него
Напоминал об одном

Em             H7
Верните каждому свое
Am             H7
Отдайте каждому свое
Am           Am
Пусть все идут своим путем
Am        H7
Приобретя утраты

Отдайте каждому свое
Верните каждому свое
И как-нибудь переживем
Конец цитаты

[Между припевами идет проигрыш, который можно сыграть примерно так:]

  Рифф 1                         Рифф 2                       Рифф 3
e|-3-3-3-2-2-0---|, Em/9, Em* e|-3-3-3-2-2-0---|, Am/9, Am e|-5-5-5-3-3-2---|, 
H|-------------0-|            H|-------------1-|           H|-------------1-|

Em, H7, Рифф 1, Em/9, Em*
             
Он играется не так как в оригинале, но при наличии двух гитар можно сыграть параллельно:
1: Em     Em/9 Em*
2: Рифф 1  
1: Em     Am Am/9  
2: Рифф 2
1: Am     Em Em H7
2: Рифф 3 
1: Em     Em/9 Em*
2: Рифф 1

И заканчивается все таким ходом:
e|-15-15-15-14-14-12------| 
H|-------------------12---| 
после этого Em провести полностью по струнам сверху вниз, задержавшись на первой струне.


Текст, аккорды и табулатура для песни "Конец Цитаты", исполняет "Зимовье Зверей".
Используемые в песне аккорды можно найти в разделе Как брать аккорды. Аккорды для шестиструнной гитары. Другие песни можно найти на нашем сайте, воспользовавшись алфавитным указателем вверху страницы.


Слушать онлайн Конец цитаты


Зимовье ЗверейКонец цитаты на Яндекс.Музыке


 
Ошибка в тексте? Выделите ошибку и нажмите Ctrl+Enter