Еще один исчезнувший фантом,
Еще одна взлетевшая свеча,
Еще одна зарубка палача
На берегу, пожизненно крутом.

История, похожая на быль,
Но, в общем-то, - украденная сказка.
Смотри, как тихо оседает пыль.
Смотри, как плотно зарастает ряска.

bass intro:

e --------------------------------------------------------
B --------------------------------------------------------
G --------------------------------------------------------
D --12/14-12----------------------------------------------
A -------------12/14---12p10---12-------------------------
E ---------------------------------14--14-12-14---10--12--


guitar intro:

e --12--10------------------------------------------------
B -----------12---10-8-10---------------------------------
G --------------------------13--1311-13---9---11---------
D --------------------------------------------------------
A --------------------------------------------------------
E --------------------------------------------------------


      Am     Asus4  G         C
Твой путь испорчен ранним дождем
     Dm     H7        Em
И желанием делать добро.
Твои сапоги недостаточно жмут,
Чтоб чувствовать силу земли.
И черные кружева соседских ворот
В глазах твоих дробят серебро.
И здесь еще тепло, но тебя уже ждут,
Меняя времена на рубли.

 Em                       D
Пусть небо будет, как последний приют
         С
Твоих надежд,
     H7
Заколоченных в гроб.
Брось эти дикие цветы
На могильную плиту
У конца всех дорог.

И в даль - до самых холодных камней,
До отравленных холерой лесов.
Чтоб легче дышать, кто-то сделал надрез
На горле твоей первой любви.
Ты мог бы успеть, но стихия сильней,
Она поет на сто голосов.
И горб твой растет, достигая небес...
Как хочешь - так иди и живи.

Стоит ли делать этот путь,
Чтоб увидеть этот лес,
Где не слышит никто?
Брось эти тщетные мечты
В яму черного добра
На краю всех мостов...

repeat guitar intro two times


Текст, аккорды и табулатура для песни "Белая песня", исполняет "Зимовье Зверей".
Используемые в песне аккорды можно найти в разделе Как брать аккорды. Аккорды для шестиструнной гитары. Другие песни можно найти на нашем сайте, воспользовавшись алфавитным указателем вверху страницы.


Слушать онлайн Белая песня


Зимовье ЗверейБелая песня на Яндекс.Музыке


 
Ошибка в тексте? Выделите ошибку и нажмите Ctrl+Enter