Вступление:
    Am Dm Em (4x)        

Куплет:
Am         Dm Em     Am
Девочка, живущая в сети,
  Dm   G    C            F
Нашедшая любовь между строк, 
      Hm7   E    Am
Между небом и землей.  
                 Пальцами  
  Dm   Em  Am
Пытаясь угадать,
  Dm    G   C          F
Надеясь угадать до конца,  
      D E
До конца

Проигрыш:
 Am  D  Am   D 
Лай-хее, лай-хее,
Dm         G      C   E
Лай-на-на-хее-ла-лай
 Проигрыш надо сделать 2 раза

В самом конце проигрыша есть такая штука:

E| -----------------------
H| 10-12/13-12-10-13/12-10
G| -----------------------
D| -----------------------
A| -----------------------
E| -----------------------

Куплет:

Девочка, живущая в сети,
Живущая за всех, до конца,
На последнем этаже.
               Клавиши, 
хранящие тепло,
Таящие вопрос никому,
Никому.

Припев:

 F
Может быть на том конце встретишь
   Dm
В чьем-нибудь чужом лице третьем,
  G
Что-нибудь отдашь сердце,
  E
Кто-нибудь отдаст сердце.
  F
Знаешь ли, бывет же чудо,
 Dm
Знаешь ли, встречают же люди,
 G
Может быть, и ты тоже...
 E
Может быть...

Куплет:

Девочка, живущая в сети,
Забывшая любовь между строк,
Между небом и землей.
                 Девочка, 
уставшие глаза,
Догнавшие рассвет, только ей,
Только ей.

Am         Dm Em     Am
Девочка, живущая в сети... Am Dm Em 

В конце играется так:

E| -----------------------
H| -----------------------
G| ----5--4------5--4-----
D| -7------------------7--
A| -----------------------
E| -----------------------

D:
       II         III        IV        V
1|----0----|----------|----------|----------|
2|----0----|----0-----|----------|----------|
3|----0----|----------|----------|----------|
4|----0----|----------|----0-----|----------|
5|----0----|----------|----------|----0-----|
6|----0----|----------|----------|----------|


Текст, аккорды и табулатура для песни "Webgirl", исполняет "Земфира".
Используемые в песне аккорды можно найти в разделе Как брать аккорды. Аккорды для шестиструнной гитары. Другие песни можно найти на нашем сайте, воспользовавшись алфавитным указателем вверху страницы.


 
Ошибка в тексте? Выделите ошибку и нажмите Ctrl+Enter