гамма: Am
табы: 

партия баса (то как я ее играю):
)- быстро

рисунок 1

E|-5--5-5--3--3-3--5--5-5--3--3-3--8--8-8--3--3-3--1--1-1--1-

рисунок 2

E|-5--5-5--3--3)3)3--5--5-5--3--3)3)3--8--8-8--10--10)10)10--8--8-8-10--10)7-8-5-

рисунок 3

E|-5--5-5--3--3)3)3--5--5-5--3--3)3)3--1--1-1--3--3)3)3)--1--1-1--3--3-

соло для баса:
s - slide

рисунок 1

G|--------9---------s17-16
D|-10-12------12----------

рисунок 2

G|-12--14-10--12-10-9--10-9-7--9-7-5

рисунок 3

G|-12--14-10--12-10-9--10-9-7--9-7-9-5

рисунок 4

G|-12----------------
D|------14--------12-
A15------

то же самое соответственно для гитары:

рисунок 1

D|------2--------s10-9
A|-3-5------5---------

рисунок 2

D|-5--7----5-------------------
A|------8----8-7--8-7-5--7-5---
E----------------8-

рисунок 3

D|-5--7----5---------------------
A|------8----8-7--8-7-5--7-5-7---
E------------------8-

рисунок 4

G|-0-------------
D--0-
A|---------3-----

конечно варианты аппликатуры могут быть другими, но ноты я считаю правильными.
я басист и играю соло для баса, поэтому могут возникнуть вопросы по 
поводу аппликатуры на гитаре. я считаю, 
это личное дело каждого как играть, тем более если играть правильно...






Текст, аккорды и табулатура для песни "П.М.М.Л.(Прости Меня Моя Любовь)", исполняет "Земфира".
Используемые в песне аккорды можно найти в разделе Как брать аккорды. Аккорды для шестиструнной гитары. Другие песни можно найти на нашем сайте, воспользовавшись алфавитным указателем вверху страницы.


 
Ошибка в тексте? Выделите ошибку и нажмите Ctrl+Enter