Intro

   Hm         C9                   G             C9                    G
   C9

1------------------0--------------------------0-------------------------0--
2-------3------------3-----------0-------------3----------0--------------3-
3-----4------0---------0-------0-------0--------0-------0-------0---------0
4---4-------------------------0-------------------------0------------------
5-2--------3----3--------------------3-----3------------------3-----3------
6---------------------------3-------------------------3--------------------

1--------------------------------|
2--------------------------------|
3---5---7---9---7----------------|
4--------------------------------|
5---3---5---7---5----------------|
6--------------------------------|

Verse
       Hm           C9                     G              C9


1--------------------0------------------------0-------------------------2-       
2-------3--------------3----------0------------3---------3----------1-----
3-----4--------0---------0------0-------0-------0------4----------2-------
4---4--------------------------0-----------------------4---------2--------
5-2---------3-----3-------------------3----3--------2---------0-----------
6----------------------------3--------------------------------------------

           D            C9
           1-----------------------------------|
           2------------3---------3-----------|
           3----------2---------0-------------|
           4--------0---------2---------------|
           5------0---------3-----------------|
           6-----------------------------------|

Hm         C         G
   Позвони, и я буду ждать,
C         Hm    Am            D       C
   Я буду знать, кому из нас верить.
Hm          C       G
   Расскажи, куда идти,
C          Hm Am             D      C
   Зачем идти, если заперты двери.


Am   G     Gm           C7
Пьяный мачо  лечит меня и плачет
     F       A      Gm
От того, что знает, как хорошо бывает.
Gm          C
А - а - а - а.


Проводи, и я буду плыть,
Я буду стыть под слишком шумные воды.
Перестань, твои глаза,
Мои глаза, в них просто разные коды.

Пьяный мачо  лечит меня и плачет
От того, что знает, как хорошо бывает.
А - а - а - а.

Полюби, и мне осталось жить
Ровно девять слов, а после вечное солнце.
Проводи, и я буду плыть,
Если хватит крон и если память вернется.




Текст, аккорды и табулатура для песни "Мачо", исполняет "Земфира".
Используемые в песне аккорды можно найти в разделе Как брать аккорды. Аккорды для шестиструнной гитары. Другие песни можно найти на нашем сайте, воспользовавшись алфавитным указателем вверху страницы.


 
Ошибка в тексте? Выделите ошибку и нажмите Ctrl+Enter