Я хочу, чтобы во рту оставался честный вкус сигарет
     Em						 Am
Мне очень дорог твой взгляд
			 C
Мне крайне важен твой цвет
			H7

Я умираю, когда вижу, точно вижу и некому спеть
      Em				    Am
Я так боюсь не успеть
		  C (C add9 - вторая гитара)
Хотя бы что-то успеть
		  H7

Замороженными пальцами в отсутствие горячей воды
     C				       D       C   C/B
Заторможенными мыслями в отсутствии, конечно, тебя
      Am7			    	D      C   C/B

И я застыну, выстрелю в спину, выберу мину и добрый вечер
 	C   C/B           Am7 C/G      Am/F# Em+5    G
Я не нарочно, просто совпало, я разгадала знак бесконечность
 	C   C/B           Am7 C/G      Am/F# Em+5    H7

 
Разочарованные фильмом, очарованные небом глаза
Я не смогу объяснить,но возвращаюсь назад
Проводи меня, останется не больше,но и не меньше чем звук
А звук все тот же,что нить,но я по прежнему друг.
 
Замороженными пальцами в отсутствие горячей воды,
Заторможенными мыслями в отсутствии конечно тебя

(Riff 1)
И я застыну, выстрелю в спину,выберу мину и добрый вечер
Я не нарочно, просто совпало,я разгадала знак бесконечность      				

(Riff 2)

Riff 1
----------------------------------------------
----------------------------------------------
---0-----0-----0-----0-----2-----0----0---0-0-
----------------------------------------------
-3---3-2---2-0---0----------------------------
-------------------3---3-2---2-0----3---3-----

----------------------------------------------------
----------------------------------------4-------4---
---0-----0-----0-----0-----2-----0----4---4---4---4-
----------------------------------------------------
-3---3-2---2-0---0------------------2-------2-------
-------------------3---3-2---2-0--------------------

Riff 2
-----0-------0-------0-------0-------0-------0----3--
---4---4---4---4---4---4---4---4---4---4---4---4--3--
--------------------------------------------------0--
-----------------------------------------------------
-3-------2-------0-----------------------------------
-------------------------3-------2-------0--------3--

-----0-------0-------0-------0-------0-------0----------------------
---4---4---4---4---4---4---4---4---4---4---4---4--------------------
--------------------------------------------------------------------
--------------------------------------------------2-4--2-4-2-4-2-4--
-3-------2-------0--------------------------------0-2--0-2-0-2-0-2--
-------------------------3-------2-------0--------------------------



Текст, аккорды и табулатура для песни "Бесконечность", исполняет "Земфира".
Используемые в песне аккорды можно найти в разделе Как брать аккорды. Аккорды для шестиструнной гитары. Другие песни можно найти на нашем сайте, воспользовавшись алфавитным указателем вверху страницы.


 
Ошибка в тексте? Выделите ошибку и нажмите Ctrl+Enter