Artist: Zebrahead
Song: Wasted
Album: Playmate of the Year
E-Mail: [email protected]
Tabbed by Jeremy Burgess

This song is awesome, and so is Zebrahead, so here are the tabs:

Intro and chorus (guitar one):

E|---------------------------------
B|---------------------------------
G|-4---------------4---------------
D|-4---6---2---2---4---6---7---0---
A|-2---6---2---2---2---6---7---0---
E|-----4---0---0-------4---5---2---

Intro and chorus (guitar two):

E|-----7-------7-------7-------------
B|---7---7---7---7---7---7-9-7-------
G|-8-------8-------8-----------6h8---
D|-----------------------------------
A|-----------------------------------
E|-----------------------------------

Pre-chorus:

E|---------------------------------
B|---------------------------------
G|---------4-----------------------
D|-2---4---4---6---2---4---7---7---
A|-2---4---2---6---2---4---7---7---
E|-0---2-------4---0---2---5---5---

Play this when Ali starts rappin:

E|-----------------------------------------------------------------------------
B|-----------------------------------------------------------------------------
G|-4-4-4-4---4-4-4-4---4-4-----------------------------------------------------
D|-4-4-4-4---4-4-4-4---4-4---2-2-2-2---2-2-2-2---2-2---6-6-6-6---6-6-6-6---6---
A|-2-2-2-2---2-2-2-2---2-2---2-2-2-2---2-2-2-2---2-2---6-6-6-6---6-6-6-6---6---
E|---------------------------0-0-0-0---0-0-0-0---0-0---4-4-4-4---4-4-4-4---4---

E|-------------------------------
B|-------------------------------
G|-------------------------------
D|-6---4-4-4-4---4-4-4-4---4-4---
A|-6---4-4-4-4---4-4-4-4---4-4---
E|-4---2-2-2-2---2-2-2-2---2-2---

Thats basically the whole song.  E-mail me if you have any questions.



Текст, аккорды и табулатура для песни "Wasted", исполняет "Zebrahead".
Используемые в песне аккорды можно найти в разделе Как брать аккорды. Аккорды для шестиструнной гитары. Другие песни можно найти на нашем сайте, воспользовавшись алфавитным указателем вверху страницы.


 
Ошибка в тексте? Выделите ошибку и нажмите Ctrl+Enter