Artist: Zebrahead
Song: Someday

Album: Waste of Mind

E-Mail: [email protected]

Tabbed by Jeremy Burgess

 

This is a fairly hard song to play, and it has a pretty nifty solo as well.  Here it is.

 

Intro:

 

E|----------------------------------------------

B|----------------------------------------------

G|---------4---1---2-1----------4-------------

D|-2h0-2---2---2-------2h0-2---2---2---4--

A|-----------------------------------0---2-----
E|----------------------------------------------

 

Verses:

 

E|-------------------------------------------------------------
B|-------------------------------------------------------------

G|-9-9-x-x-x-x-9-9-x-x-x-x-9-9-x-x-x-x----------------
D|-9-9-x-x-x-x-9-9-x-x-x-x-9-9-x-x-x-x----------------

A|-7-7-x-x-x-x-7-7-x-x-x-x-7-7-x-x-x-x-----7-----9---
E|----------------------------------------------5-5---7-7-----

 

Pre-solo:

 

E|-----------------------------------------------------------------------------------

B|-----------------------------------------------------------------------------------

G|-9-9-9-9-9-9-9-9-9-9-9-9-9-9-9-9-7-7-7-7-7-7-7-7-7-7-7-7-7-7-7-7---

D|-9-9-9-9-9-9-9-9-9-9-9-9-9-9-9-9-7-7-7-7-7-7-7-7-7-7-7-7-7-7-7-7---

A|-7-7-7-7-7-7-7-7-7-7-7-7-7-7-7-7-5-5-5-5-5-5-5-5-5-5-5-5-5-5-5-5---

E|-----------------------------------------------------------------------------------

 

 

Solo:

 

E|-------------11-12--------16h14-12-------------------------11-12--------16h14---
B|------9-12---------10-9---------------12-10-9--------9-12--------10-9------------

G|----9--------------------------------------------------9--------------------------------
D|-11------------------------------------------------11----------------------------------
A|-----------------------------------------------------------------------------------------
E|------------------------------------------------------------------------------------------

 

E|-12-12-11-12---19h16----19h16----19h16----17h14----17h14----17h14------
B|---------------------------17--------17---------17---------16--------16---------16--
G|-----------------------------------------------------------------------------------------
D|-----------------------------------------------------------------------------------------
A|-----------------------------------------------------------------------------------------
E|------------------------------------------------------------------------------------------

 

E|-16h12----16h12----16h12--------16-16-16-14-14-14-12-12-12-11-11-11-9-

B|---------14---------14-------14-12-17-17-17-16-16-16-14-14-14-12-12-12-10
G|-----------------------------------------------------------------------------------------

D|-----------------------------------------------------------------------------------------

A|-----------------------------------------------------------------------------------------
E|------------------------------------------------------------------------------------------

 

Thats the whole song.  E-mail me if you have any questions.


Текст, аккорды и табулатура для песни "Someday", исполняет "Zebrahead".
Используемые в песне аккорды можно найти в разделе Как брать аккорды. Аккорды для шестиструнной гитары. Другие песни можно найти на нашем сайте, воспользовавшись алфавитным указателем вверху страницы.


 
Ошибка в тексте? Выделите ошибку и нажмите Ctrl+Enter