COWGIRL IN THE SAND
BY NEIL YOUNG
TABBED BY James Ryan
[email protected]

INTRO

G|-------------------------------------|-------------------------------|
D|-------------------------------------|----------7-7------------------|
A|-------------------------------------|-----3-3/7-7-7-3-------3-3--3--|
E|-5-5-5/1-1-1-1/5-5-5-5-5-5/1-1-1-1-1-|-5-5-------------1-1-1-----3-3-|

VERSE/1st and 2nd SOLO 
(there are many little verations,mixing up these two work fine)

G|---------------------------|---------------------------|
D|----------7----------------|---------7-----------------|
A|-----3-3-7-7-3-----3-3---3-|------3-7-7----3-3-3-------|
E|-5-5-----------1-1-----3---|--5-5-------1-1---3--------|

CHOURS
                  x2                x2                
G|-----------------|-----------------|------------------------------------|
D|-----------------|-----7-7---------|------------------------------------|
A|-5-5-7-7-----8-8-|-5-5--7------8-8-|-8-8-----7-7-7----------3---7-7-----|
E|---------8-8-----|---------8-8--8--|-----8-8-------5----1-1---------5---|

BRIDGE

G|----------------------------------|
D|----------------------------------|
A|----------------------------------|
E|-5-5-5-5-5-5-5-5-1-1-1-1-1-1-1-1--|

3rd solo mix the verse and bridge up

THAT'S ALL      ----PLEASE TAB MORE NEIL YOUNG----


Текст, аккорды и табулатура для песни "Cowgirl In The Sand", исполняет "Young Neil".
Используемые в песне аккорды можно найти в разделе Как брать аккорды. Аккорды для шестиструнной гитары. Другие песни можно найти на нашем сайте, воспользовавшись алфавитным указателем вверху страницы.


 
Ошибка в тексте? Выделите ошибку и нажмите Ctrl+Enter