4/4

Вся тема играется триолями..

e------------------------|
B---------------12-13-15-|
G------12-13-15----------|
D|---------|----------12-13-15-------------------|
A|---------|-15-14-15----------------------------|
E------------------------|


|-11-13-15-13-11-----------------------|
-----15-13-12--------------|
--------------15-13-12-----|
---------------------------|
-----------------------15--|
---------------------------|


  G
|-3--------|-(3)----------------------------------|
|-3--------|-(3)-------------------------13-15-16-|
|-4--------|-(4)----------------12-14-16----------|
|-5--------|-(5)--------|----------12-13-15-------------------|
|-5--------|-(5)--------|-15-14-15----------------------------|
|-3--------|-(3)----------------------------------|


|-13-15-16-15-13----------------------|
-----16-15-13-------------|
--------------15-13-12----|
--------------------------|
-----------------------15-|
--------------------------|


  G#
|-4--------|-(4)------------------------------------15-16-19-16-|
|-4--------|-(4)---------------------------15-16-18-------------|
|-5--------|-(5)----------------------|----------16-17----------------------|
|-6--------|-(6)----------------------|-15-17-18----------------------------|
|-6--------|-(6)----15-14-15-17-18-17---------------------------|
|-4--------|-(4)------------------------------------------------|


---------------------------|
|-18-16-15-----------------------------|
|----------17-16-15--------------------|
--------18-17-15-----------|
-----------------18-17-15--|
---------------------------|


  F
|-1--------|-(1)--------|---------|-16-15-13-----------------------------|
|-1--------|-(1)--------|---------|----------16-15-13-12-13-15-13-12-----|
|-2--------|-(2)-----------------------------12--|
|-3--------|-(3)---------------------------------|
|-3--------|-(3)---------------------------------|
|-1--------|-(1)---------------------------------|


------------------------||
------------------------||
|-13-12-10--------------------------||
|----------13-12-9-10-12-10-9-------||
------------------11-10-||
------------------------||


----------------------------------|
----------------------------------|
|-0-0-0-10-12-13-0-0-0-7-8-10-|-0-0-0-8-10-12-0-0-0-5-7-8-|
----------------------------------|
----------------------------------|
----------------------------------|


-------------|-16-15-13----------------------------|
-------------|----------16-15-13-12-13-15-13-12----|
|-0-0-0-7-8-10-0-0-0-4-0------------------------12-|
---------------------------------------|
---------------------------------------|
---------------------------------------|


-------------------------|
-------------------------|
|-13-12-10---------------------------|
|----------13-12-9-10-12-10-9--------|
------------------11-10--|
-------------------------|


------------------|
------------------|
|-0-0-0-10-12-13-0-0-0-7-8-10-|
------------------|
------------------|
------------------|


------------------------------|
------------------------------|
|-0-0-0-8-10-12-0-0-0-5-7-8-|-0-0-0-7-8-10-0-0-0-4-0--|
------------------------------|
------------------------------|
------------------------------|


|-16-15-13----------------------------|
|----------16-15-13-12-13-15-13-12----|
-----------------------12-|
--------------------------|
--------------------------|
--------------------------|


------------------------------------------|
------------------------------------------|
|-13-12-10--------------------------|-0-0-0-10-12-13-0-0-0-7-8-10-|
|----------13-12-9-10-12-10-9-------------------------|
------------------11-10-------------------|
------------------------------------------|


-----------------------------|
-----------------------------|
|-0-0-0-8-10-12-0-0-0-5-7-8-|-0-0-0-7-8-10-0-0-0-4-0-|
-----------------------------|
-----------------------------|
-----------------------------|


|-16-15-13-----------------------------|
|----------16-15-13-12-13-15-13-12-----|
-----------------------12--|
---------------------------|
---------------------------|
---------------------------|


------------------------|
------------------------|
|-13-12-10--------------------------|
|----------13-12-9-10-12-10-9-------|
------------------11-10-|
------------------------|


----------------------------------|
----------------------------------|
|-0-0-0-10-12-13-0-0-0-7-8-10-|-0-0-0-8-10-12-0-0-0-5-7-8-|
----------------------------------|
----------------------------------|
----------------------------------|


-------------|
-------------|
|-0-0-0-7-8-10-0-0-0-4-0-|
-------------|
-------------|
-------------|


|-16-15-13----------------------------------------||
|----------16-15-13-12-13-15-13-12----------------||
-----------------------12-|-13-12-10--------------||
--------------------------|----------12-10-9-10---||
--------------------------------------||
--------------------------------------||


|----8-12----8-12----10-13----10-13-|
|-10------10------12-------12-------|
------------------------|
------------------------|
------------------------|
------------------------|


|---7-10---7-10----8-12----8-12-|---5-8---5-8---5-8---5-8/-|
|-9------9------10------10------|-6-----6-----7-----7------|
-----------------------------------|
-----------------------------------|
-----------------------------------|
-----------------------------------|


|-13-12-10-------------------12-13-15-|
|----------13-12----------------------|
-----11s13-14-16----------|
--------------------------|
--------------------------|
--------------------------|


|----8-12----8-12----10-13----10-13-|---7-10---7-10----8-12----8-12-|
|-10------10------12-------12-------|-9------9------10------10------|
--------------------------------------------|
--------------------------------------------|
--------------------------------------------|
--------------------------------------------|


|---5-8---5-8---5-8---5-8-|---4-7---4-7---------------|
|-6-----6-----5-----5-----|-5-----5-----10p7--------7-|
---------------------8----8---|
-----------------------10-----|
------------------------------|
------------------------------|


--------------------------|
|-13p10----------10-16p13----------13-|
|-------11----11----------14----14----|
|----------13----------------16-------|
--------------------------|
--------------------------|


-----------------------16-|
|-18-17-15----------------15-17-18----|
|----------17-16-14-16-17-------------|
--------------------------|
--------------------------|
--------------------------|


                                         ~~
|-17-15----------------------16-17-19-|-20----|
|-------18-17-15----15-17-18----------|-------|
-----17-------------------|-------|
--------------------------|-------|
--------------------------|-------|
--------------------------|-------|


|----8-12----8-12----10-13----10-13-|
|-10------10------12-------12-------|
------------------------|
------------------------|
------------------------|
------------------------|


|---7-10---7-10----8-12----8-12-|---5-8---5-8---5-8---5-8/-|
|-9------9------10------10------|-6-----6-----7-----7------|
-----------------------------------|
-----------------------------------|
-----------------------------------|
-----------------------------------|


|-13-12-10-------------------12-13-15-|
|----------13-12----------------------|
-----11s13-14-16----------|
--------------------------|
--------------------------|
--------------------------|


|----8-12----8-12----10-13----10-13-|---7-10---7-10----8-12----8-12-|
|-10------10------12-------12-------|-9------9------10------10------|
--------------------------------------------|
--------------------------------------------|
--------------------------------------------|
--------------------------------------------|


|---5-8---5-8---5-8---5-8-|---4-7---4-7---------------|
|-6-----6-----5-----5-----|-5-----5-----10p7--------7-|
---------------------8----8---|
-----------------------10-----|
------------------------------|
------------------------------|


--------------------------|
|-13p10----------10-16p13----------13-|
|-------11----11----------14----14----|
|----------13----------------16-------|
--------------------------|
--------------------------|


-----------------------16-|
|-18-17-15----------------15-17-18----|
|----------17-16-14-16-17-------------|
--------------------------|
--------------------------|
--------------------------|


                                         ~~
|-17-15----------------------16-17-19-|-20----||
|-------18-17-15----15-17-18----------|-------||
-----17-------------------|-------||
--------------------------|-------||
--------------------------|-------||
--------------------------|-------||


------------------|
------------------|
|-0-0-0-10-12-13-0-0-0-7-8-10-|
------------------|
------------------|
------------------|


------------------------------|
------------------------------|
|-0-0-0-8-10-12-0-0-0-5-7-8-|-0-0-0-7-8-10-0-0-0-4-0--|
------------------------------|
------------------------------|
------------------------------|


|-16-15-13----------------------------|
|----------16-15-13-12-13-15-13-12----|
-----------------------12-|
--------------------------|
--------------------------|
--------------------------|


------------------------------------------|
------------------------------------------|
|-13-12-10--------------------------|-0-0-0-10-12-13-0-0-0-7-8-10-|
|----------13-12-9-10-12-10-9-------------------------|
------------------11-10-------------------|
------------------------------------------|


-----------------------------|
-----------------------------|
|-0-0-0-8-10-12-0-0-0-5-7-8-|-0-0-0-7-8-10-0-0-0-4-0-|
-----------------------------|
-----------------------------|
-----------------------------|


|-16-15-13-----------------------------|
|----------16-15-13-12-13-15-13-12-----|
-----------------------12--|
---------------------------|
---------------------------|
---------------------------|


-------------||----8-12----8-12----10-13----10-13-|
-------------||-10------10------12-------12-------|
|-13-12-10----------------------------|
|----------12-10-9-10-----------------|
--------------------------|
--------------------------|


|---7-10---7-10----8-12----8-12-|
|-9------9------10------10------|
--------------------|
--------------------|
--------------------|
--------------------|


|---5-8---5-8---5-8---5-8/-|-13-12-10-------------------12-13-15-|
|-6-----6-----7-----7------|----------13-12----------------------|
--------------------11s13-14-16----------|
-----------------------------------------|
-----------------------------------------|
-----------------------------------------|


|----8-12----8-12----10-13----10-13-|
|-10------10------12-------12-------|
------------------------|
------------------------|
------------------------|
------------------------|


|---7-10---7-10----8-12----8-12-|
|-9------9------10------10------|
--------------------|
--------------------|
--------------------|
--------------------|


|---5-8---5-8---5-8---5-8-|---4-7---4-7---------------|
|-6-----6-----5-----5-----|-5-----5-----10p7--------7-|
---------------------8----8---|
-----------------------10-----|
------------------------------|
------------------------------|


--------------------------|
|-13p10----------10-16p13----------13-|
|-------11----11----------14----14----|
|----------13----------------16-------|
--------------------------|
--------------------------|


-----------------------16-|-17-15----------------------16-17-19-|
|-18-17-15----------------15-17-18----|-------18-17-15----15-17-18----------|
|----------17-16-14-16-17------------------17-------------------|
----------------------------------------------------|
----------------------------------------------------|
----------------------------------------------------|


   ~~
|-20--------|----8-12----8-12----10-13----10-13-|
|-10------10------12-------12-------|
------------------------|
------------------------|
------------------------|
------------------------|


|---7-10---7-10----8-12----8-12-|
|-9------9------10------10------|
--------------------|
--------------------|
--------------------|
--------------------|


|---5-8---5-8---5-8---5-8/-|-13-12-10-------------------12-13-15-|
|-6-----6-----7-----7------|----------13-12----------------------|
--------------------11s13-14-16----------|
-----------------------------------------|
-----------------------------------------|
-----------------------------------------|


|----8-12----8-12----10-13----10-13-|
|-10------10------12-------12-------|
------------------------|
------------------------|
------------------------|
------------------------|


|---7-10---7-10----8-12----8-12-|
|-9------9------10------10------|
--------------------|
--------------------|
--------------------|
--------------------|


|---5-8---5-8---5-8---5-8-|---4-7---4-7---------------|
|-6-----6-----5-----5-----|-5-----5-----10p7--------7-|
---------------------8----8---|
-----------------------10-----|
------------------------------|
------------------------------|


--------------------------|
|-13p10----------10-16p13----------13-|
|-------11----11----------14----14----|
|----------13----------------16-------|
--------------------------|
--------------------------|


-----------------------16-|-17-15----------------------16-17-19-|
|-18-17-15----------------15-17-18----|-------18-17-15----15-17-18----------|
|----------17-16-14-16-17------------------17-------------------|
----------------------------------------------------|
----------------------------------------------------|
----------------------------------------------------|


               A5
   ~~
|-20--------||----------|-----*|
||----------|-----*|
||----------|-----*|
||-7--------|-----*|
||-7--------|-----*|
||-5--------|-----*|


Текст, аккорды и табулатура для песни "Trilogy Part I", исполняет "Yngwie Malmsteen".
Используемые в песне аккорды можно найти в разделе Как брать аккорды. Аккорды для шестиструнной гитары. Другие песни можно найти на нашем сайте, воспользовавшись алфавитным указателем вверху страницы.


 
Ошибка в тексте? Выделите ошибку и нажмите Ctrl+Enter