Вступление:

        Am7              F+7              F                Dm7    Dsus2
E|----|-5--5--7--------|-5--5--8--------|-5--5--10---8-10|-12---------3---|
H|-3/5|---5---------3/5|---5---------3/5|---5------------|---13-----------| \
C|----|----------------|----------------|----------------|-----14---------| / 2 раза
D|----|----------------|----------------|----------------|----------------| 


  Am7
Я жду тебя, скорей приходи
  F+7
Хожу как тень, как голубь по карнизу,
   F
Хотя бы позвони мне, ну а там поглядим,
  Dm7                Dsus2
Сажусь на диван, включаю телевизор:

Здравствуйте, это операция "Тайд или кипячение",
Это тяжелый труд, это не увлечение,
Требующее полного самоотречения
И даже раз в году стационарного лечения.

Ой, а цены-то стали какие высокие!
Ой, а как дорого-то стало пожрать!
Ничего, доченька, продержимся на соке,
 Dm7                     Dsus2          Fm
Ведь нашим-то яблочкам с чего дорожать? 

           Am7         F    Dsus2
Замочу белье я и постираю "Тайдом",
Где ж ты, моя милая, птицей прилетай, да,
Я который день без сна у дверей встречаю,
Где же ты, моя весна? Где же ты, моя весна?
Я скучаю...

   Am7               F+7               F                 Dm7     Dsus2
E|-8---7-----------|-12--------------|-10--------------|-8---7-----------|
H|---------5-------|-----------------|-----------------|-----------------|
C|-----------------|-----10----------|-----10----------|---------10------|
D|-----------------|-----------------|-----------------|-----------------| 

Я жду тебя, как смертник избавленья,
Наверное, все-таки помру, и час мой близок,
Ничего не делаю - нет настроения,
Сижу на диване и смотрю телевизор:

Хочешь спечь пирог, используй маргарин "Пышка",
Mennen Speed Stick, если вонючая подмышка,
Если запах изо рта, нужно скушать "Rondo",
Нужен Clearosil, если прыщавая морда,

Ничем не сотрете вы помаду Lipfinity,
Хочешь, семечки щелкай, а хочешь, жуй финики,
И если любишь погонять, и сто тебе мало,
То лучше сделай так, чтобы "РОСНО" попало...

Припев > 2 раза

Проигрыш = Вступление

	
	
	        
Комментарий автора: F+7: xx3210 Dm7: xx0211 Dsus2: xx0230

Текст, аккорды и табулатура для песни "Тайд", исполняет "Уматурман".
Используемые в песне аккорды можно найти в разделе Как брать аккорды. Аккорды для шестиструнной гитары. Другие песни можно найти на нашем сайте, воспользовавшись алфавитным указателем вверху страницы.


 
Ошибка в тексте? Выделите ошибку и нажмите Ctrl+Enter