Вступление:

  Am7              F+7              Dm6/9/H          E7
E|----------------|----------------|----------------|----------------|
H|4/5-------------|--5-------------|--5-------5-----|----------------|
C|----------------|7---7-----------|7---7---------7-|--5---4---5-7---| > 3 раза
D|------7-------7-|------7-------7-|------7---------|----------------| 
A|----------------|----------------|----------------|----------------| [1]
E|----------------|----------------|----------------|----------------|

  Am7              F+7              Dm6/9/H          E7
E|----------------|----------------|----------------|----------------|
H|4/5-------------|--5-------------|--5-------5-----|----------------|
C|----------------|7---7-----------|7---7---------7-|--5---4---------|
D|------7-------7-|------7-------7-|------7---------|----------------| 
A|----------------|----------------|----------------|----------------| [2]
E|----------------|----------------|----------------|----------------|

Am7          F+7  H7          Fm6/A  E7
Раненный в висок мыслью глупой я,
Слезы на песок. Смысл бытия.
И не встать с колен нашим голосам,
В письменном столе прячем небеса.

   Am7          F+7      F+7/H      E7+5   E      
И город залит тишиной, и нас теперь не найти.
Кто-то ушел в мир иной, все остальные в пути
И как по весне тает снег мутной водой да со всех сторон,
Кто-то придет, а нас уже нет. Лапами еловыми следы похорон.

Как воды поток утром к тебе спешит
Скомканный листок рваной моей души
Выслушай прошу жажду мою утоли
Я еще дышу только надолго ли

Припев

  Am7              F+7              Dm6/9/H          E7
E|------------7-5-|------------7---|----------------|----------------|
H|4/5-------------|5-------------5-|----------------|----------------|
C|----------------|----------------|7-----------5-7-|7h8p7p5h7---5-7-|
D|----------------|----------------|----------------|----------------| 
A|----------------|----------------|----------------|----------------|
E|----------------|----------------|----------------|----------------|

  Am7              Fmaj             Dm6/9/H          E7
E|------------7-5-|------------7---|----------------|----9/10-12-10--|
H|4/5-------------|5-------------5-|----------------|--------------9-|
C|----------------|----------------|7---------------|----------------|
D|----------------|----------------|------------7---|8/9-------------| 
A|----------------|----------------|----------------|----------------|
E|----------------|----------------|----------------|----------------|


Утро, акварель скрасит мою печаль.
Раньше костер горел, а теперь свеча.
И снова луна спешит с неба кивнуть отбой,
Мне все равно, где жить, только бы жить с тобой.

Припев

Проигрыш = Вступление [1]

  Am7              F+7              Dm6/9/H          E7               Am
E|----------------|----------------|----------------|----------------|---||
H|4/5-------------|--5-------------|--5-------5-----|----------------|---||
C|----------------|7---7-----------|7---7---------7-|--5---4---5-4---|---||
D|------7-------7-|------7-------7-|------7---------|----------------|7--|| 
A|----------------|----------------|----------------|----------------|---|| 
E|----------------|----------------|----------------|----------------|---||


	
	
	        
Комментарий автора: Dm6/9/H: x23230 F+7: xx3210 Fm6/A: x00111 F+7/H: x23210 E7+5: 0x0110 (в припеве по исполнении первых трех аккордов можно периодически отпускать и прижмать указательный палец)

Текст, аккорды и табулатура для песни "Раненный в висок", исполняет "Уматурман".
Используемые в песне аккорды можно найти в разделе Как брать аккорды. Аккорды для шестиструнной гитары. Другие песни можно найти на нашем сайте, воспользовавшись алфавитным указателем вверху страницы.


 
Ошибка в тексте? Выделите ошибку и нажмите Ctrl+Enter