Вступление:
                                    A7sus2                             
E|--------------------------------|--------------------------------|
H|------------------------5-6-5---|--5---------------------5-6-5---|
G|------------------------------7-|-7----------------------------7-|
D|----------------------7---------|----------------------7---------|

   D7sus2                           A7sus2
E|--------------------------------|--------------------------------|
H|----------------------------4/5-|-5------------------------------|
G|-7------------------------------|-----7-75-5----------------5-7-|
D|--------------------------------|--------------------------7-----|

   D7sus2                           A7sus2
E|--------------------------------|--------------------------------|
H|------------------------5-6-5---|--5---------------------5-6-5---|
G|-7h8p7-5----------------------7-|-7----------------------------7-|
D|---------7------------7---------|----------------------7---------|

   D7sus2                           A7sus2
E|--------------------------------|-----7-8-7-5--------------------|
H|--------------------------------|-4/5---------5------------------|
G|-7------------------------------|----------------------------7-5-|
D|--------------------------------|--------------------------------|

   D7sus2                            
E|--------------------------------||
H|--------------------------------||
G|-6/7-------------------4-5-4h5p4||
D|---------------------7----------||

A7sus2
 По минутам осыпается
D7sus2
 Ожидание невозможного.
Hm7-5/11
 Ранним утром просыпается
E7/-13    E7
 От движения неосторожного.

Как молчание ледяной зимы,
Нас закутало неизвестностью.
Здесь так долго друг друга искали мы.
И конечно, пропали без вести...

      Dm7    G6               C+7   F+7             Hm7-5/11
  Проститься   нету сил. Закрываю,     я глаза закрываю,
E7                 Am         A7
  Сквозь туман уплывая, по аллеям столицы.
  Проститься. За потерей потеря и года полетели,
  За дождями - метели, перелетные птицы.

Только ночью не могу уснуть -
Странный холод в сердце прячется.
Что случилось, скажите мне кто-нибудь.
Только осень в окно мне расплачется.

В подоконник мой бьются горошины,
Тишину разбивая весельем.
Умирали давно понемножку мы,
И, наверное, было спасением

Припев

   A7sus2                           D7sus2
E|-----------------------10-------|--------------------------------|
H|-------------8-----------12-----|--------------------------------|
G|-----4-5-9-----------------12-9-|-7---------------5-5----------7-|
D|---7----------------------------|--------------------------------|
A|-7------------------------------|--------------------------------|
E|--------------------------------|--------------------------------|

   A7sus2                           D7sus2
E|--------------------------------|--------------------------------|
H|-4------------------------------|--------------------------------|
G|---5----------------------------|--------------------------------|
D|-----7--------------------5-----|--------------------------------|
A|------------------------7---7---|-7---5-----7--------------------|
E|------------------------------8-|---8---------8------------------|

Время смотрит спокойно, с презрением,
Вы меня уже, верно, не вспомните...
Опоздавшее ходит прозрение
По моей гладко выбритой комнате.

Недосказано и недослушано,
Сердце бьется другими вершинами.
Значит все безнадежно разрушено.
Ну, зачем же, зачем, поспешили мы

Припев > 2 раза

Проигрыш = Вступление


	
	
	        
Комментарий автора: A7sus2: x02000 D7sus2: xx0210 Hm7-5/11: x23230 E7/-13: 020110 E7: 020100 Dm7: xx0211 G7: 320030 C+7: x32000 F+7: xx3210 Am: x02210 A7: x02020

Текст, аккорды и табулатура для песни "Проститься", исполняет "Уматурман".
Используемые в песне аккорды можно найти в разделе Как брать аккорды. Аккорды для шестиструнной гитары. Другие песни можно найти на нашем сайте, воспользовавшись алфавитным указателем вверху страницы.


 
Ошибка в тексте? Выделите ошибку и нажмите Ctrl+Enter