Вступление:
e|-------5--7------------|----5----7-----------|-------4--5----7----7/8-|
H|--6------------6----5--|--------------5------|--3---------------------|
G|-----------------------|---------------------|------------------------|
                                                                
e|-------5--7------------|----5----7-----------|-------4--5----7----5--|
H|--6------------6----5--|--------------5------|--3--------------------|
G|-----------------------|---------------------|-----------------------|
 
 Dm  G         C             F         
Ночь,  уже не выследит - следы запутал
 Dm6/H  E           Am         F
Снег,     слегка касается. Красавица,
Опять тебя оставил твой любимый
Человек, и снова ты должна любовь свою
  Dm6/H  E         Am           F
Распять.   И снова ты должна любовь свою... 
 
 Dm          G    C         F
Девушка Прасковья из Подмосковья 
   Dm6/H        E    Am   F
С грустью и тоскою снова одна. 
Девушка Прасковья из Подмосковья 
 Dm6/H        E    Am   F   Dm
За-за-занавескою плачет у окна, 

(проигрыш на тех же аккордах,
в последний раз Dm E Am)

Ночь, Луны овал лица провалится,
С небес в окно уставится. Останется
Смотреть, что в твоем сердце все же нет свободных
Мест, и снова ты должна любовь свою
Стереть. И снова ты должна любовь свою...
 
Припев
 
Свет с утра запутается в шторах и
Цветах, которые ты забываешь
Поливать. Тебя не радует весна и пенье
Птах, ведь снова ты должна любовь свою
Порвать, ведь снова ты должна любовь свою... 
 
Припев > 2 раза

Кода:
e|--------------------------|-----------------------|-----------------------|
H|--------------------------|-----------------------|-----------------------|
D|-----7--9-----5--7-----4--|--5----4--5----7----5--|----4----5----7----7/9-|
G|--5--------5--------5-----|-----------------------|-----------------------|
                                                                      
e|--------------------------|----------------------|--8--7----5----4----5--|
H|--------------------------|----------------------|--7-------4----4----5--|
D|-----7--9-----5--7-----4--|--5----4--5----7------|-----------------------|
G|--5--------5--------5-----|----------------------|-----------------------|


Текст, аккорды и табулатура для песни "Прасковья", исполняет "Уматурман".
Используемые в песне аккорды можно найти в разделе Как брать аккорды. Аккорды для шестиструнной гитары. Другие песни можно найти на нашем сайте, воспользовавшись алфавитным указателем вверху страницы.


 
Ошибка в тексте? Выделите ошибку и нажмите Ctrl+Enter