Close to the Edge- Yes
-------------------------------------------------------------------------------
Tabbed by:Speedsterp
Email:[email protected]

This is just the part before the actual lyrics start.
One day I will get the entire version of this song, but for now this is it.

Tuning:

e|--15--14--10--12--14--10--12--14--10--12----------------15--14--10--12--14-
B|------------------------------------------10-10--10-10---------------------
G|---------------------------------------------------------------------------
D|---------------------------------------------------------------------------
A|---------------------------------------------------------------------------
E|---------------------------------------------------------------------------

e|--12p10--12--14--12p10--12-------------------------10--9------------14--12-
B|----------------------------10-10--10-10----8--10---------8--10--8---------
G|---------------------------------------------------------------------------
D|---------------------------------------------------------------------------
A|---------------------------------------------------------------------------
E|---------------------------------------------------------------------------

e|--15--13--10--12--13--10--12--13--10--12------------11-11-11--10-----------
B|------------------------------------------9-9-9--8---------------9-9-9--8--
G|---------------------------------------------------------------------------
D|---------------------------------------------------------------------------
A|---------------------------------------------------------------------------
E|---------------------------------------------------------------------------



e|--15--13----15--14--10--12--14--12p10--12--14--12p10--10----------------15-
B|----------------------------------------------------------10-10--10-10-----
G|---------------------------------------------------------------------------
D|---------------------------------------------------------------------------
A|---------------------------------------------------------------------------
E|---------------------------------------------------------------------------|

e|--14--10--12--14--12p10--12--14--12p10--12--14--12p10-10h12p10h12p10-------
B|----------------------------------------------------------------------10---
G|---------------------------------------------------------------------------
D|---------------------------------------------------------------------------
A|---------------------------------------------------------------------------
E|---------------------------------------------------------------------------

e|-------------------------10---10---9-------------------15----15----13------
B|--8-10--8----8------10------------------8----8----10-----------------------
G|----------------------------8----8------------------------17----17---------
D|----------10----10------------------------10---10--------------------------
A|---------------------------------------------------------------------------
E|---------------------------------------------------------------------------

e|-15-14-14-14-14-14-10-10-10-10-10-12-12-12-12-12-12-14-14-14-14-14-14------
B|---------------------------------------------------------------------------
G|---------------------------------------------------------------------------
D|---------------------------------------------------------------------------
A|---------------------------------------------------------------------------
E|---------------------------------------------------------------------------

e|-10-10-10-10-10-12-12-12-12-12-12-14-14-14-14-14-14-12-12-10-10-10-10------
B|-----------------------------------------------------------------------10--
G|---------------------------------------------------------------------------
D|---------------------------------------------------------------------------
A|---------------------------------------------------------------------------
E|---------------------------------------------------------------------------


e|----------------------10--9---------15--13--15--13----15--14--10--12--14---
B|--10--10-10----8--10---------8--10-----------------------------------------
G|---------------------------------------------------------------------------
D|---------------------------------------------------------------------------
A|---------------------------------------------------------------------------
E|---------------------------------------------------------------------------

e|-10--12--14--12p10--12--14--10--12--14-------------------------------------
B|----------------------------------------10--10---10--10--------------------
G|---------------------------------------------------------------------------
D|---------------------------------------------------------------------------
A|---------------------------------------------------------------------------
E|---------------------------------------------------------------------------



| /  slide up
|   slide down
| h  hammer-on
| p  pull-off
| ~  vibrato
| +  harmonic
| x  Mute note
===============================================================================


Текст, аккорды и табулатура для песни "Close To The Edge", исполняет "Yes".
Используемые в песне аккорды можно найти в разделе Как брать аккорды. Аккорды для шестиструнной гитары. Другие песни можно найти на нашем сайте, воспользовавшись алфавитным указателем вверху страницы.


Слушать онлайн Close To The Edge


YesClose To The Edge на Яндекс.Музыке


 
Ошибка в тексте? Выделите ошибку и нажмите Ctrl+Enter