Easy song to play once you get the intro down.Standard tuning.100%correct
Questions, Comments, Complaints: [email protected]
AIM: TomDeLonge0820 or Xeye8182
 / - Slide to
 * - Let Ring
.. - Palm Mute

                  ---Guitar 1---
Intro x2:
e-----9----------------------------------------
B----7-7-4-------------------------------------
G-4-6------4-6-8-8/9-8-6-4-6-8-8/9-4-6-4*-3----
D----------------------------------------------
A----------------------------------------------
E----------------------------------------------
  . .
Verse 1 (x2):
e-----------------------------------------------------
B-----------------------------------------------------
G--------------------------4-4-4--4-4-4---------------
D-2-2--2-2-2--2-2-2--2-2-2-4-4-4--4-4-4--4-4-4--4-4-4-
A-2-2--2-2-2--2-2-2--2-2-2-2-2-2--2-2-2--4-4-4--4-4-4-
E-0-0--0-0-0--0-0-0--0-0-0---------------2-2-2--2-2-2-
  ....................................................

e----------------------------------------------------------
B----------------------------------------------------------
G-------------------------------4-4-4--4-4-4---------------
D-----2-2--2-2-2--2-2-2--2-2-2--4-4-4--4-4-4--4-4-4--4-4-4-
A-----2-2--2-2-2--2-2-2--2-2-2--2-2-2--2-2-2--4-4-4--4-4-4-
E-7/1-0-0--0-0-0--0-0-0--0-0-0----------------2-2-2--2-2-2-
      .    ...    ...    ...    ...    ...    ...    ...

Pre Chorus (fast strumming):
e-----------------------------------------------------------
B-----------------------------------------------------------
G-------------------------4-4-4-4-4-4-----------------------
D-2-2-2-2-2-2-2-2-2-2-2-2-4-4-4-4-4-4-4-4-4-4-4-4-----------
A-2-2-2-0-0-0-2-2-2-0-0-0-2-2-2-2-2-2-4-4-4-4-4-4-----------
E-0-0-0-0-0-0-0-0-0-0-0-0-------------2-2-2-2-2-2-----------
        .....       .....       .....       .....

e------------------------------------------------------
B------------------------------------------------------
G-------------------------4-4-4-4-4-4------------------
D-2-2-2-2-2-2-2-2-2-2-2-2-4-4-4-4-4-4-4----------------
A-2-2-2-0-0-0-2-2-2-0-0-0-2-2-2-2-2-2-4----------------
E-0-0-0-0-0-0-0-0-0-0-0-0-------------2----------------
        .....       .....       .....       

Chorus (x2):
e------------------------------------------------------
B------------------------------------------------------
G-4-4-4-4-4-4-4-------------4-4-4-4-4-4-4--------------
D-4-4-4-4-4-4-4-2-2-2-2-2-2-4-4-4-4-4-4-4-4-4-4-4-4-4--
A-2-2-2-2-2-2-2-2-2-2-2-2-2-2-2-2-2-2-2-2-4-4-4-4-4-4--
E---------------0-0-0-0-0-0---------------2-2-2-2-2-2--

e------------------------------------------------------
B------------------------------------------------------
G-------------------9-9-9-9-9-11-11-11-11-11-----------
D-11-11-11-13-13-13-9-9-9-9-9-11-11-11-11-11-----------
A-11-11-11-13-13-13-7-7-7-7-7--9--9--9--9--9-----------
E--9--9--9-11-11-11------------------------------------

Post Chorus:
e-----9----------------------------------------
B----7-7-4-------------------------------------
G-4-6------4-6-8-8/9-8-6-4-6-8-8/9-4-6-4*-3----
D----------------------------------------------
A----------------------------------------------
E----------------------------------------------
  . .
Verse 2 (after first part of Verse do this)
e--------------------------------------------
B--------------------------------------------
G-4*-/9*/8/6/4*-8/6/4*--8/6/4*---------------
D-4*-/9*/8/6/4*-8/6/4*--8/6/4*---------------
A-2*-/7*/6/4/2*-6/4/2*--6/4/2*---------------
E--------------------------------------------

Pre Chorus (fast strumming):
e-----------------------------------------------------------
B-----------------------------------------------------------
G-------------------------4-4-4-4-4-4-----------------------
D-2-2-2-2-2-2-2-2-2-2-2-2-4-4-4-4-4-4-4-4-4-4-4-4-----------
A-2-2-2-0-0-0-2-2-2-0-0-0-2-2-2-2-2-2-4-4-4-4-4-4-----------
E-0-0-0-0-0-0-0-0-0-0-0-0-------------2-2-2-2-2-2-----------
        .....       .....       .....       .....

e------------------------------------------------------
B------------------------------------------------------
G-------------------------4-4-4-4-4-4------------------
D-2-2-2-2-2-2-2-2-2-2-2-2-4-4-4-4-4-4-4----------------
A-2-2-2-0-0-0-2-2-2-0-0-0-2-2-2-2-2-2-4----------------
E-0-0-0-0-0-0-0-0-0-0-0-0-------------2----------------
        .....       .....       .....       

Chorus (x2):
e------------------------------------------------------
B------------------------------------------------------
G-4-4-4-4-4-4-4-------------4-4-4-4-4-4-4--------------
D-4-4-4-4-4-4-4-2-2-2-2-2-2-4-4-4-4-4-4-4-4-4-4-4-4-4--
A-2-2-2-2-2-2-2-2-2-2-2-2-2-2-2-2-2-2-2-2-4-4-4-4-4-4--
E---------------0-0-0-0-0-0---------------2-2-2-2-2-2--

e------------------------------------------------------
B------------------------------------------------------
G-------------------9-9-9-9-9-11-11-11-11-11-----------
D-11-11-11-13-13-13-9-9-9-9-9-11-11-11-11-11-----------
A-11-11-11-13-13-13-7-7-7-7-7--9--9--9--9--9-----------
E--9--9--9-11-11-11------------------------------------

Bridge:
e------------------------------------------------------
B------------------------------------------------------
G-9-9-9-9-9-9-9/8/6/4/6--9-9-9-9-9-9-9/8/6/4/6---------
D-9-9-9-9-9-9-9/8/6/4/6--9-9-9-9-9-9-9/8/6/4/6---------
A-7-7-7-7-7-7-7/6/4/2/4--7-7-7-7-7-7-7/6/4/2/4---------
E------------------------------------------------------

e------------------------------------------------------
B------------------------------------------------------
G-9-9-9-9-9-8-8-8-6-6-6-4-4-4-6-6-6-8-8-8-------------- x2
D-9-9-9-9-9-8-8-8-6-6-6-4-4-4-6-6-6-8-8-8--------------
A-7-7-7-7-7-6-6-6-4-4-4-2-2-2-4-4-4-6-6-6--------------
E------------------------------------------------------
  ...   ...   ...   ...   ...   ...   ...

Pre Chorus (fast strumming):
e-----------------------------------------------------------
B-----------------------------------------------------------
G-------------------------4-4-4-4-4-4-----------------------
D-2-2-2-2-2-2-2-2-2-2-2-2-4-4-4-4-4-4-4-4-4-4-4-4-----------
A-2-2-2-0-0-0-2-2-2-0-0-0-2-2-2-2-2-2-4-4-4-4-4-4-----------
E-0-0-0-0-0-0-0-0-0-0-0-0-------------2-2-2-2-2-2-----------
        .....       .....       .....       .....

e------------------------------------------------------
B------------------------------------------------------
G-------------------------4-4-4-4-4-4------------------
D-2-2-2-2-2-2-2-2-2-2-2-2-4-4-4-4-4-4-4-4-4-4----------
A-2-2-2-0-0-0-2-2-2-0-0-0-2-2-2-2-2-2-4-4-4-4----------
E-0-0-0-0-0-0-0-0-0-0-0-0-------------2-2-2-2----------
        .....       .....       ..... .......      

Chorus (x2):
e------------------------------------------------------
B------------------------------------------------------
G-4-4-4-4-4-4-4-------------4-4-4-4-4-4-4--------------
D-4-4-4-4-4-4-4-2-2-2-2-2-2-4-4-4-4-4-4-4-4-4-4-4-4-4--
A-2-2-2-2-2-2-2-2-2-2-2-2-2-2-2-2-2-2-2-2-4-4-4-4-4-4--
E---------------0-0-0-0-0-0---------------2-2-2-2-2-2--

e------------------------------------------------------
B------------------------------------------------------
G-------------------9-9-9-9-9-11-11-11-11-11-----------
D-11-11-11-13-13-13-9-9-9-9-9-11-11-11-11-11-----------
A-11-11-11-13-13-13-7-7-7-7-7--9--9--9--9--9-----------
E--9--9--9-11-11-11------------------------------------

Ending:
e-----9----------------------------------------
B----7-7-4-------------------------------------
G-4-6------4-6-8-8/9-8-6-4-6-8-8/9-4-6-4*-3----
D----------------------------------------------
A----------------------------------------------
E----------------------------------------------

e-----9------------------------------------------------
B----7-7-4---------------------------------------------
G-4-6------4-6-8-8/9-8-6-4-6-8-8/9-6-4-6-4-4-4-4-4-3---
D----------------------------------------4-4-4-4-4-3---
A----------------------------------------2-2-2-2-2-1---
E------------------------------------------------------



=======================================================================
                              ----Guitar 2----

Intro x2 (start after 1st guitar part does 4-6):
e---9------------------------------------------
B--7-7-4---------------------------------------
G--------4-6-8-8/9-8-6-4-6-8-8/9-6-4-6-4*-3----
D----------------------------------------------
A----------------------------------------------
E----------------------------------------------

Verse 1 (x2):
e-----------------------------------------------------
B-----------------------------------------------------
G--------------------------4-4-4--4-4-4---------------
D-2-2--2-2-2--2-2-2--2-2-2-4-4-4--4-4-4--4-4-4--4-4-4-
A-2-2--2-2-2--2-2-2--2-2-2-2-2-2--2-2-2--4-4-4--4-4-4-
E-0-0--0-0-0--0-0-0--0-0-0---------------2-2-2--2-2-2-
  ....................................................

e----------------------------------------------------------
B----------------------------------------------------------
G-------------------------------4-4-4--4-4-4---------------
D-----2-2--2-2-2--2-2-2--2-2-2--4-4-4--4-4-4--4-4-4--4-4-4-
A-----2-2--2-2-2--2-2-2--2-2-2--2-2-2--2-2-2--4-4-4--4-4-4-
E-7/1-0-0--0-0-0--0-0-0--0-0-0----------------2-2-2--2-2-2-
      .    ...    ...    ...    ...    ...    ...    ...

Pre Chorus:
e------------------------------------------------------------------------
B------------------------------------------------------------------------
G-9/11-11--9/11-11--9/11-11--9/11-11--9/11-11--9/11-11--9/11-11--9/11-11-
D-9/11-11--9/11-11--9/11-11--9/11-11--9/11-11--9/11-11--9/11-11--9/11-11-
A-7/9--9---7/9--9---7/9--9---7/9--9---7/9--9---7/9--9---7/9--9---7/9--9--
E------------------------------------------------------------------------

Chorus (x2):
e------------------------------------------------------
B------------------------------------------------------
G-4-4-4-4-4-4-4-------------4-4-4-4-4-4-4--------------
D-4-4-4-4-4-4-4-2-2-2-2-2-2-4-4-4-4-4-4-4-4-4-4-4-4-4--
A-2-2-2-2-2-2-2-2-2-2-2-2-2-2-2-2-2-2-2-2-4-4-4-4-4-4--
E---------------0-0-0-0-0-0---------------2-2-2-2-2-2--

e------------------------------------------------------
B------------------------------------------------------
G-------------------9-9-9-9-9-11-11-11-11-11-----------
D-11-11-11-13-13-13-9-9-9-9-9-11-11-11-11-11-----------
A-11-11-11-13-13-13-7-7-7-7-7--9--9--9--9--9-----------
E--9--9--9-11-11-11------------------------------------

Post Chorus:
e-----9----------------------------------------
B----7-7-4-------------------------------------
G-4-6------4-6-8-8/9-8-6-4-6-8-8/9-4-6-4*-3----
D----------------------------------------------
A----------------------------------------------
E----------------------------------------------

Verse 2 (after first part of Verse do this)
e--------------------------------------------
B--------------------------------------------
G-4*-/9*/8/6/4*-8/6/4*--8/6/4*---------------
D-4*-/9*/8/6/4*-8/6/4*--8/6/4*---------------
A-2*-/7*/6/4/2*-6/4/2*--6/4/2*---------------
E--------------------------------------------

Pre Chorus:
e------------------------------------------------------------------------
B------------------------------------------------------------------------
G-9/11-11--9/11-11--9/11-11--9/11-11--9/11-11--9/11-11--9/11-11--9/11-11-
D-9/11-11--9/11-11--9/11-11--9/11-11--9/11-11--9/11-11--9/11-11--9/11-11-
A-7/9--9---7/9--9---7/9--9---7/9--9---7/9--9---7/9--9---7/9--9---7/9--9--
E------------------------------------------------------------------------

Chorus (x2):
e------------------------------------------------------
B------------------------------------------------------
G-4-4-4-4-4-4-4-------------4-4-4-4-4-4-4--------------
D-4-4-4-4-4-4-4-2-2-2-2-2-2-4-4-4-4-4-4-4-4-4-4-4-4-4--
A-2-2-2-2-2-2-2-2-2-2-2-2-2-2-2-2-2-2-2-2-4-4-4-4-4-4--
E---------------0-0-0-0-0-0---------------2-2-2-2-2-2--

e------------------------------------------------------
B------------------------------------------------------
G-------------------9-9-9-9-9-11-11-11-11-11-----------
D-11-11-11-13-13-13-9-9-9-9-9-11-11-11-11-11-----------
A-11-11-11-13-13-13-7-7-7-7-7--9--9--9--9--9-----------
E--9--9--9-11-11-11------------------------------------

Bridge:
e------------------------------------------------------
B------------------------------------------------------
G-9-9-9-9-9-9-9/8/6/4/6--9-9-9-9-9-9-9/8/6/4/6---------
D-9-9-9-9-9-9-9/8/6/4/6--9-9-9-9-9-9-9/8/6/4/6---------
A-7-7-7-7-7-7-7/6/4/2/4--7-7-7-7-7-7-7/6/4/2/4---------
E------------------------------------------------------

e------------------------------------------------------
B------------------------------------------------------
G-9-9-9-9-9-8-8-8-6-6-6-4-4-4-6-6-6-8-8-8-------------- x2
D-9-9-9-9-9-8-8-8-6-6-6-4-4-4-6-6-6-8-8-8--------------
A-7-7-7-7-7-6-6-6-4-4-4-2-2-2-4-4-4-6-6-6--------------
E------------------------------------------------------
  ...   ...   ...   ...   ...   ...   ...

Prechorus:
e------------------------------------------------------------------------
B------------------------------------------------------------------------
G-9/11-11--9/11-11--9/11-11--9/11-11--9/11-11--9/11-11--9/11-11--9/11-11-
D-9/11-11--9/11-11--9/11-11--9/11-11--9/11-11--9/11-11--9/11-11--9/11-11-
A-7/9--9---7/9--9---7/9--9---7/9--9---7/9--9---7/9--9---7/9--9---7/9--9--
E------------------------------------------------------------------------     

Chorus (x2):
e------------------------------------------------------
B------------------------------------------------------
G-4-4-4-4-4-4-4-------------4-4-4-4-4-4-4--------------
D-4-4-4-4-4-4-4-2-2-2-2-2-2-4-4-4-4-4-4-4-4-4-4-4-4-4--
A-2-2-2-2-2-2-2-2-2-2-2-2-2-2-2-2-2-2-2-2-4-4-4-4-4-4--
E---------------0-0-0-0-0-0---------------2-2-2-2-2-2--

e------------------------------------------------------
B------------------------------------------------------
G-------------------9-9-9-9-9-11-11-11-11-11-----------
D-11-11-11-13-13-13-9-9-9-9-9-11-11-11-11-11-----------
A-11-11-11-13-13-13-7-7-7-7-7--9--9--9--9--9-----------
E--9--9--9-11-11-11------------------------------------

Ending:
e---9------------------------------------------
B--7-7-4---------------------------------------
G--------4-6-8-8/9-8-6-4-6-8-8/9-6-4-6-4*-3----
D----------------------------------------------
A----------------------------------------------
E----------------------------------------------

e-----9------------------------------------------------
B----7-7-4---------------------------------------------
G-4-6------4-6-8-8/9-8-6-4-6-8-8/9-6-4-6-4-4-4-4-4-3---
D----------------------------------------4-4-4-4-4-3---
A----------------------------------------2-2-2-2-2-1---
E------------------------------------------------------


Текст, аккорды и табулатура для песни "Twenty Three", исполняет "Yellowcard".
Используемые в песне аккорды можно найти в разделе Как брать аккорды. Аккорды для шестиструнной гитары. Другие песни можно найти на нашем сайте, воспользовавшись алфавитным указателем вверху страницы.


 
Ошибка в тексте? Выделите ошибку и нажмите Ctrl+Enter