YEAH YEAH YEAHS
MAPS
Tabbed by Dan Steadman
DropD Tuning: E,B,G,D,A,D(high to low)

Intro/ played through the whole song 
E|----------|
a|----------|
d|----------|
g|----------|
b|----------|rapidly tremelo pick
e|---10-----|

verse
E|-----------------------------------------|
a|-----------------------------------------|
d|-----------------------------------------|
g|-----------------------------------------|
b|-----------------------------------------|
e|--7-7-7-7-3-3-3-3-7-7-7-7/10-10-10-10-10-|

E|-----------------------------------------|
a|-----------------------------------------|
d|-----------------------------------------|
g|-----------------------------------------|
b|-----------------------------------------|
e|-7-7-7-7-3-3-3-3/12-12-12-12-15-15-15-15-|

Chorus
E|-12-12-12-12-12-5-5-5-5-5-----------|
a|-12-12-12-12-12-5-5-5-5-5-----------|
d|-12-12-12-12-12-5-5-5-5-5-----------|
g|------------------------------------|
b|------------------------------------|
e|------------------------------------|

E|------------------------------------|
a|------------------------------------|
d|------------------------------------|the higher catchy part
g|------------------------------------|wah synth
b|------------------------------------|
e|--19-19-19-19-19-15-15-15-15-15-----|

bridge?
E|-------------------------------------------------|
a|-------------------------------------------------|
d|-------------------------------------------------|
g|-------------------------------------------------|
b|-------------------------------------------------|
e|-19-19-19-19-15-15-15-15-12-12-12-12/14-15-15-15-|

other part?/ solo?
E|------------------------------------|
a|------------------------------------|
d|------------------------------------|
g|----------------5-5-5-5-5-5-5-------|
b|----------------5-5-5-5-5-5-5-------|
e|-17-17-17-16-17-5-5-5-5-5-5-5-------|

E|------------------------------------|
a|------------------------------------|
d|------------------------------------|
g|----------------5-5-5-5-5-5-5-------|
b|-------------14-5-5-5-5-5-5-5-------|
e|-17-17-17-16----5-5-5-5-5-5-5-------|

E|------------------------------------|
a|------------------------------------|
d|------------------------------------|
g|----------------5-5-5-5-5-5-5-------|
b|----------------5-5-5-5-5-5-5-------|
e|-17-17-17-16-17-5-5-5-5-5-5-5-------|

E|------------------------------------|
a|------------------------------------|
d|------------------------------------|
g|-------------------------5----------|
b|-------------14----------5----------|
e|-17-17-17-16----19-17-12-5----------|

instermental part
E|------------------------------------|
a|------------------------------------|
d|------------------------------------|
g|-5-5-5-5-2-2-2-2-5-5-5-5-7-7-7-7----|
b|-5-5-5-5-2-2-2-2-5-5-5-5-7-7-7-7----|
e|-5-5-5-5-2-2-2-2-5-5-5-5-7-7-7-7----|

dubbed over
E|-3-3-3-3-0-0-0-0-3-3-3-3-5-5-5-5----|
a|------------------------------------|
d|-0-0-0-0-0-0-0-0-0-0-0-0-0-0-0-0----|
g|------------------------------------|
b|------------------------------------|
e|------------------------------------|

End on
E|----------|
a|----------|
d|----------|
g|----------|
b|----------|rapidly tremelo pick
e|---10-----|

I hope this will help the confusion with this tab on this site.
It's correct just watch frequntly watch the video.
-Dan


Текст, аккорды и табулатура для песни "Maps", исполняет "Yeah Yeah Yeahs".
Используемые в песне аккорды можно найти в разделе Как брать аккорды. Аккорды для шестиструнной гитары. Другие песни можно найти на нашем сайте, воспользовавшись алфавитным указателем вверху страницы.


Слушать онлайн Maps


Yeah Yeah YeahsMaps на Яндекс.Музыке


 
Ошибка в тексте? Выделите ошибку и нажмите Ctrl+Enter