----------------------------------------------------------------------------
			     MAPS - Yeah Yeah Yeahs
----------------------------------------------------------------------------
Tabbed By: Eric Hathaway 
Tuning: Standard

Times in parentheis are the first times that the riffs occur in the song.
Many of the riffs are repeated.


  (This part is picked quick)
e|-------------------------------------------------------------------------|
B|-15-15-15-15-15-15-15-15-15-15-15-15-15-15-15-15-15-15-15-15-15-15-15-15-|
G|-------------------------------------------------------------------------|
D|-------------------------------------------------------------------------|
A|-------------------------------------------------------------------------|
E|-------------------------------------------------------------------------|



  (0:30.... there might be some subtle slides between the notes)
e|-------------------------------------------------------------------------|
B|-12--12--12--12---9--9--9--9---12--12--12--12---15--15--15--15-----------|
G|-------------------------------------------------------------------------|
D|-------------------------------------------------------------------------|
A|-------------------------------------------------------------------------|
E|-------------------------------------------------------------------------|

e|-------------------------------------------------------------------------|
B|-12--12--12--12---9--9--9--9---17--17--17--17---20--20--20--20-----------|
G|-------------------------------------------------------------------------|
D|-------------------------------------------------------------------------|
A|-------------------------------------------------------------------------|
E|-------------------------------------------------------------------------|


  (0:46  Repeat..... I hammer or pull to the 17th fret to make it smoother)
e|-19-19-19-19-19-19-19--17--15-15-15-15-15-15-15--17--19-19-19-19-19-19-19|
B|-------------------------------------------------------------------------|
G|-------------------------------------------------------------------------|
D|-------------------------------------------------------------------------|
A|-------------------------------------------------------------------------|
E|-------------------------------------------------------------------------|



  (1:01..... Only time this is played)
e|-19--19--19--17--15--15--15--15------------------------------------------|
B|---------------------------------17--17--17--15--20--20--20--20----------|
G|-------------------------------------------------------------------------|
D|-------------------------------------------------------------------------|
A|-------------------------------------------------------------------------|
E|-------------------------------------------------------------------------|



e|-------------------------------------------------------------------------|
B|-------------------------------------------------------------------------|
G|-------------------------------------------------------------------------|
D|-x-17-17-17-16-17/16-x-5-5-5-5-57--7------------------------------------|
A|-------------------------------------------------------------------------|
E|-x-15-15-15-14-15/14-x-3-3-3-3-35--5------------------------------------|
                            (1st ending)     (2nd ending)                   
e|------------------------|-----------------|------------------------------|
B|------------------------|-----------------|------------------------------|
G|------------------------|-----------------|------------------------------|
D|-x-17-17-17-16-21-21/19-|-x-5-5-5-5-57--7|-191716-5-------------------|
A|------------------------|-----------------|------------------------------|
E|-x-15-15-15-14-19-19/17-|-x-3-3-3-3-35--5|-171514-3-------------------|



  (2:14.... These two parts are played at the same time)

  (Slightly put your thumb next to the G string so it doesn't ring as long)
e|---3-3-3-3-3-3-3-3-3-3-3-3-3---------------------------------------------|
B|-------------------------------------------------------------------------|
G|--0-0-0-0-0-0-0-0-0-0-0-0-0----------------------------------------------|
D|-------------------------------------------------------------------------|
A|-------------------------------------------------------------------------|
E|-------------------------------------------------------------------------|
 |
e|-------------------------------------------------------------------------|
B|-------------------------------------------------------------------------|
G|-------------------------------------------------------------------------|
D|--5--2--0-----2-5-----5--2--0-----2-5------------------------------------|
A|-------------------------------------------------------------------------|
E|-----------3-------------------3-----------------------------------------|


| /  slide up
|   slide down
| h  hammer-on
| p  pull-off
| ~  vibrato
| +  harmonic
| x  Mute note
============================================================================


Текст, аккорды и табулатура для песни "Maps", исполняет "Yeah Yeah Yeahs".
Используемые в песне аккорды можно найти в разделе Как брать аккорды. Аккорды для шестиструнной гитары. Другие песни можно найти на нашем сайте, воспользовавшись алфавитным указателем вверху страницы.


Слушать онлайн Maps


Yeah Yeah YeahsMaps на Яндекс.Музыке


 
Ошибка в тексте? Выделите ошибку и нажмите Ctrl+Enter