-----------------------------------------------------------------------------
			     MAPS - Yeah Yeah Yeahs
-----------------------------------------------------------------------------
Tabbed By: DKW 
Tuning: Standard
note:repeat each parts as needed

(fast picking through out the entire song)
e|--10-10-10-10-10-10-10-10-10-10-10-10-10-10-10-10-10-10-10-10-10-10-10----|
B|--------------------------------------------------------------------------|
G|--------------------------------------------------------------------------|
D|--------------------------------------------------------------------------|
A|--------------------------------------------------------------------------|
E|--------------------------------------------------------------------------|

(when singing starts)
e|-7-7-7-7-3-3-3-3/-7-7-7-7-10-10-10-10------------------------------------|
B|--------------------------------------------------------------------------|
G|--------------------------------------------------------------------------|
D|--------------------------------------------------------------------------|
A|--------------------------------------------------------------------------|
E|--------------------------------------------------------------------------|

e|-7-7-7-7-3-3-3-3/-12-12-12-12-15-15-15-15--------------------------------|
B|--------------------------------------------------------------------------|
G|--------------------------------------------------------------------------|
D|--------------------------------------------------------------------------|
A|--------------------------------------------------------------------------|
E|--------------------------------------------------------------------------|

(4 times)
e|-19-19-19-19-19-19-19-17-15-15-15-15-15-12-15-12--------------------------|
B|--------------------------------------------------------------------------|
G|--------------------------------------------------------------------------|
D|--------------------------------------------------------------------------|
A|--------------------------------------------------------------------------|
E|--------------------------------------------------------------------------|

e|-19-19-19-17-15-15-15-15-12-12-12-12-12-15-15-15-15-----------------------|
B|--------------------------------------------------------------------------|
G|--------------------------------------------------------------------------|
D|--------------------------------------------------------------------------|
A|--------------------------------------------------------------------------|
E|--------------------------------------------------------------------------|

(repeat the following two parts twice)
e|--------------------------------------------------------------------------|
B|--------------------------------------------------------------------------|
G|--------------------------------------------------------------------------|
D|-x-17-17-17-16-17-17-16-x-5-5-5-5-7-7-7-----------------------------------|
A|--------------------------------------------------------------------------|
E|-x-15-15-15-14-15-15-14-x-3-3-3-3-5-5-5-----------------------------------|
 |                           (1st ending)    (2nd ending)                   |
e|------------------------|-----------------|-------------------------------|
B|------------------------|-----------------|-------------------------------|
G|------------------------|-----------------|-------------------------------|
D|-x-17-17-17-16-21-21-19-|-x-5-5-5-5-7-7-7-|-1917-17-5-5-5---------------|
A|------------------------|-----------------|-------------------------------|
E|-x-15-15-15-14-19-19-17-|-x-3-3-3-3-5-5-5-|-1715-15-3-3-3---------------|

(these two parts are played at the same time)
e|---3-3-3-3-3-3-3-3-3-3-3-3-3----------------------------------------------|
B|--------------------------------------------------------------------------|
G|--0-0-0-0-0-0-0-0-0-0-0-0-0-----------------------------------------------|
D|--------------------------------------------------------------------------|
A|--------------------------------------------------------------------------|
E|--------------------------------------------------------------------------|
 |                                                                          |
e|--------------------------------------------------------------------------|
B|--------------------------------------------------------------------------|
G|--------------------------------------------------------------------------|
D|--5--2--0-----2-5-----5--2--0-----2-5-------------------------------------|
A|--------------------------------------------------------------------------|
E|-----------3-------------------3------------------------------------------|


| /  slide up
|   slide down
| h  hammer-on
| p  pull-off
| ~  vibrato
| +  harmonic
| x  Mute note
=============================================================================


Текст, аккорды и табулатура для песни "Maps", исполняет "Yeah Yeah Yeahs".
Используемые в песне аккорды можно найти в разделе Как брать аккорды. Аккорды для шестиструнной гитары. Другие песни можно найти на нашем сайте, воспользовавшись алфавитным указателем вверху страницы.


Слушать онлайн Maps


Yeah Yeah YeahsMaps на Яндекс.Музыке


 
Ошибка в тексте? Выделите ошибку и нажмите Ctrl+Enter