boom boom boom

 E             A               B
------------- -0-0-2-2-2-3-0- -2-2-4-4-4-4-2-|
-0-0-2-2-2-2- -2-2-3-3-3-2-2- -4-4-5-5-5-5-4-|
-1-1-2-2-2-2- -2-2-3-2-2-3-2- -4-4-4-4-4-4-4-|
-2-2-2-2-2-2- --------------- ---------------|
------------- --------------- ---------------|
------------- --------------- ---------------|

intro
2 gtr
                 E                     E                       A
-----------------------------------------------------------------|
-----3---------------------------------------------3-------------|
-2s4---4s2-0---------------0-2s4-0-------------2s4---4s2-0-2-0-2-|
-------------2-0---------2---------2-0-2-------------------------|
-----------------------------------------------------------------|
-----------------------------------------------------------------|
               E                        B                   E
--------------------------------------------------------------|
--------------------------3-----------------------------------|
---0-2s4-0------------2s4---4s2-0-2-0-2s4---------------------|
-2---------2-0-2------------------------------------0---------|
------------------------------------------------0-2---1s2-----|
----------------------------------------------------------3-0-|

verses
(chords;c/intro)
(1)boom boom boom
im gonna shoot you right down
knock your off you feet
and take you home with me
and put you in my house
boom boom boom

boom boom boom
yeah yeah yeah
i love to see you strut
when your walking to me
and when you talking to me
that knocks me out(now lets go)

(1st solo)
12 bar blues in E
-----------------------------------------------------------------------------------------|
-----------------------------------------------------------------------------------------|
----12-14-14b-14b-14b-14b-14b16-14-12----12-----12-14-14b-14b-14b-14b--14b16-14-12---12s-|
-14-----------------------------------14-----14------------------------------------14----|
-----------------------------------------------------------------------------------------|
-----------------------------------------------------------------------------------------|

-------------------------------------------------12----------------------|
----12-15b-12-15b-15b-15-12----------------12-15----15-12----12----------|
-14-------------------------14-12-------------------------14----14-12----|
----------------------------------14-12-14----------------------------14-|
-------------------------------------------------------------------------|
-------------------------------------------------------------------------|

(3)boom boom boom
you know i like it like that
with your baby talk
and the way that you walk
you know it knocks me right down
knocks me off my feet

boom boom boom
yeah yeah yeah
oh oh oh
how how how
yeah yeah yeah
now now now

(2nd solo)
12 bar blues in E

coda
E E9



Текст, аккорды и табулатура для песни "Boom Boom Boom", исполняет "Yardbirds".
Используемые в песне аккорды можно найти в разделе Как брать аккорды. Аккорды для шестиструнной гитары. Другие песни можно найти на нашем сайте, воспользовавшись алфавитным указателем вверху страницы.


 
Ошибка в тексте? Выделите ошибку и нажмите Ctrl+Enter