X Japan Endless Rain Solo

Tabbed by Glay [email protected]
Revised by Shine [email protected]

p  = pull off
h  = hammer on
/  = slide
b  = full bend
hb = hold bend
rb = release bend

This is as close as i can get. Enjoy, it's a really good solo.

e|---------------------------------------------------------------------------------|
B|--------8hb--8rb--7--8--7h8p7----------------------------------------------------|
G|----7-----------------------9--7--6--4--------6--9--7--6-------------------------|
D|----------------------------------------7--9--------------9--7--7/5--9--7--------|
A|---------------------------------------------------------------------------------|
E|---------------------------------------------------------------------------------|


e|-------------------------------------------------7/5---10--10b--9------9----|
B|-------------------------------------------7/5------------------------------|
G|-------------------------------------7/6---------------------------11-------|
D|------------------------5--7---9/7------------------------------------------|
A|----10--9--7------7--9------------------------------------------------------|
E|--------------10------------------------------------------------------------|

e|----10--12--10----------9b--------14--12--10--------------------------------|
B|----------------12--9B------10----------------------------------------------|
G|----------------------------------------------12---12--11-------------------|
D|----------------------------------------------------------------------------|
A|----------------------------------------------------------------------------|
E|----------------------------------------------------------------------------|


e|-----------------------------------------------------17-14-15-17-15---------|
B|-----------------------------14-------14-15----14-15------------------------|
G|--------------14-16----14-16----14-16-------16------------------------------|
D|----14-16--17-------17------------------------------------------------------|
A|----------------------------------------------------------------------------|
E|----------------------------------------------------------------------------|

e|-------------------------------------------------------------------------------|
B|-------------------------------------------------------------------------------|
G|--------------------11------------------12-11-9-7------------12-11-------------|
D|----12---11--12--14-------12-------11-14-------------11-12-14------------------|
A|----------------------------12-13----------------------------------------------|
E|-------------------------------------------------------------------------------|

e|----17-15h17p15-14h15p14-12h14p12-10h12p10-10p9h10p9--7--14----14-15-15b-14-|
B|------------------------------------------------------------17--------------|
G|----------------------------------------------------------------------------|
D|----------------------------------------------------------------------------|
A|----------------------------------------------------------------------------|
E|----------------------------------------------------------------------------|

e|--------14-----------15-14----------------14-15-17-14-15-17-19-15-17-19-----|
B|----17---------14-17-------17-15-17-15-17-----------------------------------|
G|------------15--------------------------------------------------------------|
D|----------------------------------------------------------------------------|
A|----------------------------------------------------------------------------|
E|----------------------------------------------------------------------------|

e|----21-17-19-21-19---19b---18-----------------------------------------------|
B|----------------------------------------------------------------------------|
G|----------------------------------------------------------------------------|
D|----------------------------------------------------------------------------|
A|----------------------------------------------------------------------------|
E|----------------------------------------------------------------------------|


Текст, аккорды и табулатура для песни "Endless Rain", исполняет "X Japan".
Используемые в песне аккорды можно найти в разделе Как брать аккорды. Аккорды для шестиструнной гитары. Другие песни можно найти на нашем сайте, воспользовавшись алфавитным указателем вверху страницы.


 
Ошибка в тексте? Выделите ошибку и нажмите Ctrl+Enter