C  -332010-
D  -000232-
Am -002210-
G  -320033-

Вступление:

e:------------3-3-3-3-3-3-3-3-------------3-3-3-3-3-3-3-3--
B:------------3-3-3-3-3-3-3-3-------------3-3-3-3-3-3-3-3--
G:------------0-0-0-0-0-0-0-0----0--------0-0-0-0-0-0-0-0--
D:--------2---2-2-2-2-2-2-2-2------2/0-0--0-0-0-0-0-0-0-0--
A:--0/2----------------------------------------------------
E:-3-------------------------------------------------------


e:-------------3-3-3-3-3-3-3-3-------------3-3-3-3-3-3-3-3-
B:-------------3-3-3-3-3-3-3-3-------------3-3-3-3-3-3-3-3-
G:-------------0-0-0-0-0-0-0-0----0--------0-0-0-0-0-0-0-0-
D:---------2---2-2-2-2-2-2-2-2------2/0-0--0-0-0-0-0-0-0-0-
A:---0/2---------------------------------------------------
E:-3-------------------------------------------------------


e:-------------3-3-3-3-3-3-3-3-------------3-3-3-3-3-3-3-3-
B:-------------3-3-3-3-3-3-3-3-------------3-3-3-3-3-3-3-3-
G:-------------0-0-0-0-0-0-0-0-------------0-0-0-0-0-0-0-0-
D:----------2--2-2-2-2-2-2-2-2--2-0--------0-0-0-0-0-0-0-0-
A:----0/2----------------------------2/0-0-----------------
E:--3------------------------------------------------------


e:------------3-3-3-3-3-3-3-3-------------3-3-3-3-3-3-3-3--
B:------------3-3-3-3-3-3-3-3-------------3-3-3-3-3-3-3-3--
G:------------0-0-0-0-0-0-0-0-------------0-0-0-0-0-0-0-0--
D:--------2---2-2-2-2-2-2-2-2--2-0--------0-0-0-0-0-0-0-0--
A:--0/2-----------------------------2/0-0------------------
E:-3-------------------------------------------------------

       
e:---3---
B:---3---
G:---0--- вверхвниз несколько раз
D:---0---
A:-------
E:-3-----



Тут вступает небольшое соло... 

e:----------------------------------------------2/4--4/2--
B:------3------5---3----------------------------2/4--4/2--
G:--2/4----------4-------4-2------------------------------
D:-----------------------------0--------0-0----------------
A:------------------------------------2--------------------
E:---------------------------------------------------------


e:---------------------------------------------------------
B:3/5--5/3---3-3-3-3---------3---5-5^--5-3------------3----
G:2/4--4/2---2-2-0-0-----2/4--------------4-2--2-2/4-----4-
D:---------------------------------------------------------
A:---------------------------------------------------------
E:---------------------------------------------------------

                               
e:---------------------------------------------------------
B:---------3---5---5^--5-----3-----------------------------
G:2----2/4---------------------4---2-----2/42-------------
D:---------------------------------------------------------
A:---------------------------------------------------------
E:---------------------------------------------------------

e:---3---
B:---3---
G:---0--- вверхвниз несколько раз
D:---0---
A:-------
E:-3-----

C                        D                   
So, so you think you can tell. 
              Am                  
Heaven from Hell, 
                 G
Blue skies from pain,
                       D                       
Can you tell a green field 
                   C
From a cold steel rail?  
             Am
A smile from veil?
                     G
Do you think you can tell?
                     C
Did they get you to trade,
                   D
Your hero´s for ghosts,
                 Am
Hot ashes for trees,
                G
Hot air for a cool breeze,             
                D
Cold comfort for change,                       
           C
Did you exchange,                                     
                    Am
A walk-on part in the war,
                    G
For a lead role in a cage?
                                           
                       
 
Идет партия из вступления...



G      C                        D
How I wish, how I wish you were here.  

           Am                                    
Were just two lost soles swimming in a fish bowl,  
    G
Year after year.

  D                                 C
Running over the same old ground,   but have we found 
 

      Am                      G
The same old fears?   Wish you were here.


Опять партия из вступления...


Текст, аккорды и табулатура для песни "Wish You Were Here", исполняет "Wyclef Jean".
Используемые в песне аккорды можно найти в разделе Как брать аккорды. Аккорды для шестиструнной гитары. Другие песни можно найти на нашем сайте, воспользовавшись алфавитным указателем вверху страницы.


 
Ошибка в тексте? Выделите ошибку и нажмите Ctrl+Enter