song:what grows in your garden?
artist:wolfgang
album:wolfgang
tabbed by:leander m.
tune guitar Eb Bb Gb Db Ab Eb
info:ANY COMMENT,SUGESTION,DEATH THREATS,LOVE LETTERS,BOMB THREATS,SEX MATE
     JUST E-MAIL ME ON [email protected] OR TEXT/CALL 09193216020...
    (O46)540-5461...THNX 2 ALL TAB FINDERS WHO E-MAILED ME THIS PAST DAYS THNX

intro/stanza:G-Bb
Eb|--------------3----|
Bb|--------------3----|
Gb|--------------4----|
Db|--5-5/8-5-8-5---8--|
Ab|--5-5/8-5-8-5---8--|
Eb|--3-3/6-3-6-3---6--|

refrain:
Eb|-------------------||--3---6-----------------------|
Bb|-------------------||--3---6------8-8p7p5----------|
Gb|----------7-5-5-4--||--4---7--7^9---------8p7p5----|
Db|--6-5-5-5-7-5-5-4--||--5-8----------------------5--|
Ab|--6-5-5-5-5-3-3-2--||--5-8-------------------------|
Eb|--4-3-3-3-0-0-0-0--||--3-6-------------------------|

Bridge:
Eb|---------------------------------|
Bb|---------------------------------|
Gb|---------------------------------|
Db|--3~~-5~-3~-3-3-3-3-3-3x-    -4--|
Ab|--3~~-5~-3~-3-3-3-3-3-3x-(3x)-4--|
Eb|--1~~-3~-1~-1-1-1-1-1-1x-    -2--|

final riff:
Eb|-------------------|
Bb|-------------------|
Gb|-------------------|
Db|--5/8-8-8-8/10-12--|
Ab|--5/8-8-8-8/10-12--|
Eb|--3/6-6-6-6/8--10--|
tabbed by:[email protected]
               end   
              Kc_Cut3


Текст, аккорды и табулатура для песни "What Grows In Your Garden", исполняет "Wolfgang".
Используемые в песне аккорды можно найти в разделе Как брать аккорды. Аккорды для шестиструнной гитары. Другие песни можно найти на нашем сайте, воспользовавшись алфавитным указателем вверху страницы.


 
Ошибка в тексте? Выделите ошибку и нажмите Ctrl+Enter