Tulisan
album : Serve in Silence
Band  : Wolfgang
Tab by: Manuel Legarda 
taken form the news letter

Intro : Meters is in 6/4 times
Rhythm Fig.1

|--------------------------|--------------------------|
|--------------------------|--------------------------|
|--------------------------|--------------------------|
|-------------2-2-----5-5--|-------------2-2-----5-5--|
|--4-4---4-4--0-0--5--3-3--|--4-4---4-4--0-0--5--3-3--|
|--2-2-0-2-2-------3-------|--2-2-0-2-2-------3-------|
pm . . . . .  . .  .  . .     . . . . .  . .  .  . .

Vocals enter play Rhythm Fig.1  (Refrain)
Rhyth. Fig.2 let ring--------
|------0------|--------------
|--------0----|--------------
|----------3--|--------------
|--4----------|--5-------5---
|--4----------|--5-------5---
|--2----------|--3-------3---

Solo
|---------------------|--------------------------------------
|--17-17----20-20-20--|--5-5---------------------------------
|--16-16-14-----------|--5-5-7-5---5-------------------------
|---------------------|----------7---7--5---5-7-5---5--------
|---------------------|-------------------7-------7---7-5----
|---------------------|-----------------------------------8--

|-----------------------------|-------------------|------------------------
|-----------------------------|-------------------|------------------------
|--------------------------5--|----5-7-5---5-5-5--|------------------------
|------5-7-5---5-7-5---5-7----|--7-------7--------|---5---4---4-5-4-4------
|--5-7-------7-------7--------|-------------------|-00-000-000----7-7-5-3--
|-----------------------------|-------------------|------------------------
                                    ah . . . . .

|-------------------------------|------------------------------------
|-------------------------------|-------------3-6-5-3---8--10-13-15--
|----5-----9-------12----14-----|-------2-9-3---------2-10-12-15-17--
|-------------------------------|---4-3-4----------------------------
|--3---3-7---7--10----10----12--|-2----------------------------------
|-------------------------------|------------------------------------
                                  **** trem pick ****

|----------------------10---9----------------------------10---9---7-0h2p0------|
|----10---9---10---9------------10---9------------------------------------3-0--|
|--7----7---7----7---7----7---7----7---9-7----9-7----7-7----5---7--------------|
|------------------------------------------10-----10---------------------------|
|------------------------------------------------------------------------------|
|------------------------------------------------------------------------------|

|---------------------|
|---------------------|
|---------------------|
|------4-2-------2-4--|
|--4-4------4-2-------|
|--2-2----------------|

verse
|-----------------------|-----------------------|
|-----------------------|-----------------------|
|-----------------------|-----------------------|
|------------2-2---5-5--|------------2-2---5-5--|
|--4-4---4-4-0-0-5-3-3--|--4-4---4-4-0-0-5-3-3--|
|--2-2-0-2-2-----3------|--2-2-0-2-2-----3------|
pm . . . . . . . . . .     . . . . . . . . . . 

meter is in 4/4 time
Rhythm Fig.3 Chorus
|------------------------------|------------------------------|
|------------------------------|------------------------------|
|------------------------------|------------------------------|
|--------------7-7-7-7-9-9-9-9-|-------------5-5-5-5-4-4-4-4--|
|--4--4--4--4--5-5-5-5-7-7-7-7-|---4-4---4-4-3-3-3-3-2-2-2-2--|
|--0-2-2-0-2-2-----------------|-0-2-2-0-2-2------------------|


Текст, аккорды и табулатура для песни "Tulisan", исполняет "Wolfgang".
Используемые в песне аккорды можно найти в разделе Как брать аккорды. Аккорды для шестиструнной гитары. Другие песни можно найти на нашем сайте, воспользовавшись алфавитным указателем вверху страницы.


 
Ошибка в тексте? Выделите ошибку и нажмите Ctrl+Enter