SONG:new mother natureverwirrung
ARTIST:WOLFGANG
ALBUM:semenelin
TAB BY:GUITAR WOLF
ARANGED & PASSED BY:LEANDER V. M.([email protected])

INTRO
Eb|-------------------------------|
Bb|-------------------------------|
Gb|-----------------------4-7-----|
Db|--2-4-5--2-4-5--2-4-5--4-7-7---|
Ab|--2-4-5--2-4-5--2-4-5--2-5-4---|
Eb|--0-2-2--0-2-2--0-2-2----------|

VERSES
Eb|--------------------------------||-------------------------|
Bb|--------------------------------||-------------------------|
Gb|----------3-------2-----0-------||----------3-------2------|
Db|------4-----4---4---4-----4---4-||------4-----4---4---4----|
Ab|----4---4-----4-------4-----4---||----4---3-----4-------4--|
Eb|--2-----------------------------||--0----------------------|

CHORUS
Eb|----------3------3----------||----------0-----0------------|
Bb|------3-----3------3---3----||------2-----2-----2---2------|
Gb|----0---0-----0------3------||--------0-----0-----0--------|
Db|----------------------------||----2------------------------|
Ab|----------------------------||-----------------------------|
Eb|--3-------------------------||--2--------------------------|

CHORUS EXTENSION
Eb|--------------------------------------------------------------|
Bb|--------------------------------------------------------------|
Gb|-------------------------------------------------10-------12--|
Db|-------------------2-2-2-2--------------------10-10----12-12--|
Ab|------2---2/4---4--0-0-0-0-5-5-5-5-5-5-5-5--8--8--8-10-10-10--|
Eb|--2/5---5-----5------------3-3-3-3-3-3-3-3--------------------|

SOLO
Eb|-------------------------||--12h14h15p14p12h14h15-12-12/14-14--
Bb|------10----10-12-12/14--||------------------------------------
Gb|--/11----11--------------||------------------------------------
Db|-------------------------||------------------------------------
Ab|-------------------------||------------------------------------
Eb|-------------------------||------------------------------------

--12-12-12-12p10-12-12-12p10-10-10-12p10-9-9-10p9----------9----------
---------------------------------------------------12-10-12-----------
--------------------------------------------------------------11-11--
----------------------------------------------------------------------
----------------------------------------------------------------------
----------------------------------------------------------------------

Eb|-------------------------------------------------------------------|
Bb|---------------------10^12-10^12-----------------------------------|
Gb|------------------11-----------------------------------------------|
Db|--12-12p9-11-12p9--------------------------------------------------|
Ab|-------------------------------------------------------------------|
Eb|-------------------------------------------------------------------|

Eb|---------------------------------------------|
Bb|--12h14h15p14p12----12h14-15p14-14h15p14p12--|
Gb|-----------------14--------------------------|
Db|---------------------------------------------|
Ab|---------------------------------------------|
Eb|---------------------------------------------|

Eb|-------------------------------------------------------------------|
Bb|-------------------------------------------------------------------|
Gb|-----12/10----7h8p7---7-----------------------------2-4-2----------|
Db|-/14-------12-------9---9p7-6h7p6---6-4/2-------4-2-------5-4^ah)--|
Ab|----------------------------------9-------2/4-2--------------------|
Eb|-------------------------------------------------------------------|

Eb|--2h3h5p2p3-----------2h3h5p3p2p0h2h3h5t7--|
Bb|------------5-3p2-3h5----------------------|
Gb|-------------------------------------------|
Db|-------------------------------------------|
Ab|-------------------------------------------|
Eb|-------------------------------------------|

Eb|--5p3p2h3h5t9-5p3p2h3h5t10-5p3p2h3h5p3p2--|
Bb|------------------------------------------|
Gb|------------------------------------------|
Db|------------------------------------------|
Ab|------------------------------------------|
Eb|------------------------------------------|

Eb|----------------------------------------------------------15^17--|
Bb|--5-3h5p3---3h5-15^17-15^17-15-14-12-15p14p12-15p14p12-----------|
Gb|----------4--------------------------------------------14--------|
Db|-----------------------------------------------------------------|
Ab|-----------------------------------------------------------------|
Eb|-----------------------------------------------------------------|

riff 1                              guitar solo II
Eb|-------------------------||-------------------------------|
Bb|-------------------------||-------------------------------|
Gb|------4------------------||-------------------------------|
Db|----4---2-4p2------------||------------------------2---4--|
Ab|--2-----------5-------5--||----5-4---7-5-0-2-5-4-0---x----|
Eb|----------------0-2-3----||--7-----5----------------------|

riff II
Eb|-------------------------||-------------------------------------------------|
Bb|-------------------------||-------------------------------------------------|
Gb|-------------------------||-------------------------------------------------|
Db|-------------------------||--2-2-2-------3-3-3-5-5-5-3-3-3-5-5-5-----5-5-5--|
Ab|--7/9-X--------7-9-2-----||--2-2-2-5-5-5-1-1-1-3-3-3-1-1-1-3-3-3-5-5-3-3-3--|
Eb|--5/7-X-7-10-7-5-7-0-3-2-||--0-0-0-2-2-2-------------------------3-3--------|

END...FINALLY


Текст, аккорды и табулатура для песни "New Mother Nature Verrwirung", исполняет "Wolfgang".
Используемые в песне аккорды можно найти в разделе Как брать аккорды. Аккорды для шестиструнной гитары. Другие песни можно найти на нашем сайте, воспользовавшись алфавитным указателем вверху страницы.


 
Ошибка в тексте? Выделите ошибку и нажмите Ctrl+Enter