Within Temptation
Ice Queen
Mother Earth

tabbed by Снrdаn Sбrаlоndл

O.k. this has been my first tab so it might not be 100% correct but
it sounds perfectly allright to me.
Off course, you can always mail any comments on this tab to me at [email protected]
Good luck with playing!


Chorus
G||-----------------------------------------------------------------|x2
D||-----------------------------------------------------------------|
A||--------------------------------------------------2-2-2--21-11-1-|
E||-4-4-4--4--------4-4-4--4---------4-4-4--4-----------------------|
B||---------5-55-5-----------2-22-2----------5-55-5-----------------|

G||-------------------------|
D||-------------------------|
A||-2---2-----2---2-----2-1-|
E||-------------------------|
B||-------------------------|

Verse
G||------------------------------|x4
D||------------------------------|
A||----------------2-2-2--2------|
E||-4-4-4--4---------------2-2-2-|
B||---------5-5-5----------------|

Interlude
   x3			      x3
G||----------------|---------|----------------|---------|
D||----------------|---------|----------------|---------|
A||*--------------*|-2-----1-|*--------------*|-0-----2-|
E||*--------4-44-4*|---------|*--------4-44-4*|---------|
B||-2-2-2----------|---------|-2-2-2----------|---------|

Bridge
G||-----------------------------------------|x2
D||-----------------------------------------|
A||-------------------------------2---1-----|
E||-------------4-----2-------------------4-|
B||-5-----2-----------------5---------------|

Outtro
G||--------------------------------------------------------|x2
D||--------------------------------------------------------|
A||----------------------------------------------2---1-----|
E||-------------------4-44-4---2-22-2--------------------4-|
B||-5-55-5---2-22-2---------------------5-55-5-------------|

Structure:
---------------
Intro (no bass)
Chorus
Verse
Interlude
Verse
Interlude
Bridge
Chorus
Verse
Interlude
Outtro


Текст, аккорды и табулатура для песни "Ice Queen", исполняет "Within Temptation".
Используемые в песне аккорды можно найти в разделе Как брать аккорды. Аккорды для шестиструнной гитары. Другие песни можно найти на нашем сайте, воспользовавшись алфавитным указателем вверху страницы.


 
Ошибка в тексте? Выделите ошибку и нажмите Ctrl+Enter