Within Temptation - Gatekeeper
Great song off 'Enter'

Standard tuning -EADGBe
or/=slide
~=vibrato

Keyboard Intro
|------------------------------------------------------|
|------------------------------------------------------|
|------------------------------------------------------|
|------------------------------------------------------|
|------------------------------------------------------|
|-3~~~~~-----------------------------------------------|

riff A - brass intro (0:20)
|------------------------------------------------------|
|------------------------------------------------------|
|-7~--5-3h5--53-------2h3h5--5p3p2(h3)--3-2-----------|
|----------------/7-7----------------------------------|
|------------------------------------------------------|
|------------------------------------------------------|

|------------------------------------------------------|
|----------------------------------------3-2-----------|
|-7~--5-3h5--53-------2h3h5--5p3p2(h3)----------------|
|----------------/7-7----------------------------------|
|------------------------------------------------------|
|------------------------------------------------------|


riff B - slow strings after the brass bit 
|-15--15--17--18--15--15--17--18--15--15--17--18--15--15--18--17--|
|-----------------------------------------------------------------|
|-----------------------------------------------------------------| 
|-----------------------------------------------------------------|
|-----------------------------------------------------------------|
|-----------------------------------------------------------------|

repeat as many times a necesary, but on the last time play |-15--18--20----| at the end.

keyboard played underneath the slow strings
|------------------------------------------------------|
|------------------------------------------------------|
|------------------------------------------------------|
|-5------------------5---------------------------------|
|-----6---8---5---------6---8---5----------------------|
|------------------------------------------------------|

|------------------------------------------------------|
|------------------------------------------------------|
|------------------------------------------------------|
|-5------------------5----------7~---------------------|
|-----6---8---5---------6---8--------------------------|
|------------------------------------------------------|

riff C (Guitar) (1:40) (play the 8/6 only on last time)
|----------------------------------------------------------|-|
|----------------------------------------------------------|-|
|----------------------------------------------------------|-|
|-5------------5------------/85--7------------7-----------|8|
|-3-33-3-33-3--3-33-3-33-3--/63--5-55-5-55-5--5-55-5-55-5-|6|
|----------------------------------------------------------|-|
    pm.......    pm.......          pm.......    pm.......
						(4x)
fast bit with strings, cant figure it out

riff D
|------------------------------------------------------|
|------------------------------------------------------|
|------------------------------------------------------|
|-2-2-2--222---2-2-2--222---2-2-2--222---2-2-2--222----|
|-2-2-2--222---2-2-2--222---2-2-2--222---2-2-2--222----|
|-0-0-0--000---0-0-0--000---0-0-0--000---0-0-0--000----|
 p.m................................................
						(2x)
riff E
|------------------------------------------------------|
|------------------------------------------------------|
|------------------------------------------------------|
|------------------------------------------------------|
|-7-----5-------------------7-----5--------------------|
|---000---000-7-7777-7777-----000---000-7-7777-7777----|
   pm..  pm..   pm.......    pm..  pm..   pm.......
riff F
|------------------------------------------------------|
|------------------------------------------------------|
|------------------------------------------------------|
|------------------------------------------------------|
|-5-----3-------------------5-----3--------------------|
|---000---000-5-5555-5555-----000---000-5-5555-5555----|
   pm..  pm..   pm.......    pm..  pm..   pm.......

riff G (3:08) (guitar)
|------------------------------------------------------|
|------------------------------------------------------|
|------------------------------------------------------|
|------------------------------------------------------|
|-7p5-7p5-7p5-7p5--9p7-9p7-9p7-9p7--7p5h7--------------|
|------------------------------------------------------|
						(8x)
riff G (3:08) (keyboard underneath guitar)
|--------------------------------------------------------|
|--------------------------------------------------------|
|--------------------------------------------------------|
|--------------------------------------------------------|
|-7--9-10-9-----7--9-10-9-----7--9-10-9-----7--9-10-9----|
|-----------10------------10------------10------------10-|
						(2x)
riff H (3:24)
|------------------------------------------------------|
|------------------------------------------------------|
|------------------------------------------------------|
|------------------------------------------------------|
|-777-10-10-10-999-777----777-10-10-10-10-999-777------|
|------------------------------------------------------|
 p.m..............................................

|------------------------------------------------------|
|------------------------------------------------------|
|------------------------------------------------------|
|------------------------------------------------------|
|------------------------------------------------------|
|-777-10-10-10-999-777----777-10-10-10-10-999-777------|
 p.m..............................................

|------------------------------------------------------|
|------------------------------------------------------|
|------------------------------------------------------|
|------------------------------------------------------|
|-777-10-10-10-999-777----777-10-10-10-10-999-777------|
|------------------------------------------------------|
 p.m..............................................

|------------------------------------------------------|
|------------------------------------------------------|
|------------------------------------------------------|
|------------------------------------------------------|
|-555-888-777-555----555-888-777-555-------------------|
|------------------------------------------------------|
 p.m..............................................

repeat riff E 1x (4:00)
repeat riff F 1x
repeat riff G 4x / 2x
repeat riff H 3x

riff I
|------------------------------------------------------|
|------------------------------------------------------|
|------------------------------------------------------|
|-9999-9999-9999-9999----------------------------------|
|-7777-7777-7777-7777--9999-9999-9999-9999-------------|
|----------------------7777-7777-7777-7777-------------|
 p.m.............................................
						(3x)
riff J (6:06)
|------------------------------------------------------|
|------------------------------------------------------|
|------------------------------------------------------|
|-------------2------2---------------------------------|
|-7--5-7--5---2------2---------------------------------|
|-5--3-5--3---0-00-0-0---------------------------------|
                xx x
riff K
|------------------------------------------------------|
|------------------------------------------------------|
|------------------------------------------------------|
|------------------------------------------------------|
|-777--9--999999---------------------------------------|
|-555--7--777777---------------------------------------|
	  xxxxxx

repeat riff J 1x
repeat riff K 1x


Текст, аккорды и табулатура для песни "Gatekeeper", исполняет "Within Temptation".
Используемые в песне аккорды можно найти в разделе Как брать аккорды. Аккорды для шестиструнной гитары. Другие песни можно найти на нашем сайте, воспользовавшись алфавитным указателем вверху страницы.


 
Ошибка в тексте? Выделите ошибку и нажмите Ctrl+Enter