Sometime World (2 Solos)
from Argus
Transcribed by Rob Watson [email protected]

Intro
                            Bm

E|10b12-----10-9-10-12-10-9|-----------------------------|
B|-------------------------|12---------------------------|
G|-------------------------|-----------------------------|
D|-------------------------|-----------------------------|
A|-------------------------|-----------------------------|
E|-------------------------|-----------------------------|

  First Solo    Bm          Em        A

E|-------7-9h10|-----------|---9h10p9|7-10-12-(12pb14)r12-10-7-10|
B|--7h10-------|7----------|---------|---------------------------|
G|-------------|----9-7-6-7|9--------|---------------------------|
D|-------------|-----------|---------|---------------------------|
A|-------------|-----------|---------|---------------------------|
E|-------------|-----------|---------|---------------------------|

  Bm                                             Em

E|-----7----------------|12--14-15-17-----------|-----14|
B|7-10---10-7---------12|-------------15---14-15|17-----|
G|------------9---------|-----------------------|-------|
D|--------------9-------|-----------------------|-------|
A|----------------------|-----------------------|-------|
E|----------------------|-----------------------|-------|

  A                         Bm

E|10-7-10------------------|----------------|
B|--------7-10-7-----------|----------------|
G|---------------7h9--7-6-7|----------------|
D|-------------------------|9---------------|
A|-------------------------|----------------|
E|-------------------------|----------------|

Second Solo

3.35 A             G           A             G                           

E|--|12-9---------|10-7-------|12-9---------|10-7--------|
B|10|-----10-----8|-----8---10|-----10-----8|-----8------|
G|--|--------9----|-------7---|--------9----|-------7--7-|
D|--|-------------|-----------|-------------|------------|
A|--|-------------|-----------|-------------|------------|
E|--|-------------|-----------|-------------|------------|

  Bm         Em         Bm         Em       A

E|9-7-------|9-7-------|9-7-------|9-7-----|-----------|
B|----7-----|----8-----|----7-----|----8---|-----------|
G|------7--7|------9--7|------7--7|------9-|7-6-7-9---7|
D|----------|----------|----------|--------|-----------|
A|----------|----------|----------|--------|-----------|
E|----------|----------|----------|--------|-----------|

  G          A           G               Bm

E|----------|-----------|---------------|----------------|
B|----------|------7----|---------------|7-10-7----------|
G|6-7-6----7|6-7-9-----7|6-7-6-------7-9|-------7-9b11---|
D|------9---|-----------|------9---9----|----------------|
A|----------|-----------|---------------|----------------|
E|----------|-----------|---------------|----------------|

  Em                        Bm

E|-------------------------|--------------------------------------|
B|7-10-(10pb12)r10-10b12--7|10-(10pb12)-10-(10pb12)-10-(10pb12)r10|
G|-------------------------|--------------------------------------|
D|-------------------------|--------------------------------------|
A|-------------------------|--------------------------------------|
E|-------------------------|--------------------------------------|

  Em             A               G                A

E|----------10-9|7--------------|----------------|-------------|
B|10tr----7-----|--10-10p12-10-7|--7------10-----|-------------|
G|--------------|---------------|9---9b11----(11)|r9-7-6-------|
D|--------------|---------------|----------------|-------9-7---|
A|--------------|---------------|----------------|-----------7-|
E|--------------|---------------|----------------|-------------|

  G                Bm          Em            Bm

E|--------7-------|-----------|-------------|------10-------|
B|----------7-10-7|-----------|7-10-10--7-10|10b12----r11b12|
G|------7---------|7p6---6-7-9|-------------|---------------|
D|--7s9-----------|----9------|-------------|---------------|
A|5---------------|-----------|-------------|---------------|
E|----------------|-----------|-------------|---------------|

  Em

E|10---------10------------| 
B|---r11b12-----r11b12-----| 
G|-------------------------| 
D|-------------------------| 
A|-------------------------| 
E|-------------------------|


Текст, аккорды и табулатура для песни "Sometime World", исполняет "Wishbone Ash".
Используемые в песне аккорды можно найти в разделе Как брать аккорды. Аккорды для шестиструнной гитары. Другие песни можно найти на нашем сайте, воспользовавшись алфавитным указателем вверху страницы.


 
Ошибка в тексте? Выделите ошибку и нажмите Ctrl+Enter