This Time (Props go to John Sixkiller)
Wipers
Over The Edge, 1983


Intro:
E------------------------------------------------------------------------------
B------------------------------------------------------------------------------
G------------------------------------------------------------------------------
D--5-5-5-5--5-5-5-5--5-5-5---8-8-8-8---3-3-3-3---10-10-10-10---3-3-3-3--3-3-3--
A--5-5-5-5--5-5-5-5--5-5-5---8-8-8-8---3-3-3-3---10-10-10-10---3-3-3-3--3-3-3--
E--3-3-3-3--3-3-3-3--3-3-3---6-6-6-6---1-1-1-1----8--8--8--8---1-1-1-1--1-1-1--

Verse:
E------------------------------------------
B------------------------------------------
G------------------------------------------
D--5-5-5-5---5-5-5-5---5-5-5-5---5-5-5-5---
A--5-5-5-5---5-5-5-5---5-5-5-5---5-5-5-5---
E--3-3-3-3---3-3-3-3---3-3-3-3---3-3-3-3---
   Don't wanna be a part of you............
E------------------------------------------------
B------------------------------------------------
G------------------------------------------------
D--8-8-8-8---3-3-3-3---6-6-6-6--3-3-3-3-/-5-5-5--
A--8-8-8-8---3-3-3-3---6-6-6-6--3-3-3-3-/-5-5-5--
E--6-6-6-6---1-1-1-1---8-8-8-8--1-1-1-1-/-3-3-3--

Chorus:
E-----------------------------------------------------------------------------
B-----------------------------------------------------------------------------
G-----------------------------------------------------------------------------
D--5-5-5-5-5-5-5-5----8-8-8-8-8-8-8-8----5-5-5-5-5-5-5-5---8-8-8-8-8-8-8-8----
A--5-5-5-5-5-5-5-5----8-8-8-8-8-8-8-8----5-5-5-5-5-5-5-5---8-8-8-8-8-8-8-8----
E--3-3-3-3-3-3-3-3----6-6-6-6-6-6-6-6----3-3-3-3-3-3-3-3---6-6-6-6-6-6-6-6----
   This time..........Gonna change.......This time.........Gonna change.......
E---------------------------
B---------------------------
G---------------------------
D--3-3-3-3-3-3-3-3-/-5-5-5--
A--3-3-3-3-3-3-3-3-/-5-5-5--
E--1-1-1-1-1-1-1-1-/-3-3-3--
   For me, for you..........


Текст, аккорды и табулатура для песни "This Time", исполняет "Wipers".
Используемые в песне аккорды можно найти в разделе Как брать аккорды. Аккорды для шестиструнной гитары. Другие песни можно найти на нашем сайте, воспользовавшись алфавитным указателем вверху страницы.


 
Ошибка в тексте? Выделите ошибку и нажмите Ctrl+Enter