Is This Real?
Yes, it is. These tabs are all written out and composed by ME, John
Sixkiller. Let this be known: these are my versions of playing these
songs. They sound just like how Greg Sage himself plays them. I am not
getting paid or making any profit off of this. That being said, enjoy.
                                      -John Sixkiller
                                              3-28-03


RETURN OF THE RAT

E-------------------------------------------------
B-------------------------------------------------
G-----------5--5-5--------------------------------
D--7--7-7---5--5-5-------5-5-------5-------5--6---
A--7--7-7------------7---5-5---7---5---7---5--6---
E--------------------7---------7-------7----------

E-----------------------------------------
B-----------------------------------------
G-----------5-5-5-5----------------5---4--
D--7--7-7---5-5-5-5------5-5-------5---4--
A--7--7-7------------7---5-5---7---3---2--
E--------------------7---------7----------

Chorus Riff:
E------------------------------------------------
B--4--4-4-4---5---2-2-2---4--4-4-4---5---2-2-2---
G--4--4-4-4---5---2-2-2---4--4-4-4---5---2-2-2---
D--4--4-4-4---5---2-2-2---4--4-4-4---5---2-2-2---
A--2--2-2-2---3---0-0-0---2--2-2-2---3---0-0-0---
E------------------------------------------------

E--------------------------------------------
B--4--4-4-4---5---0---2--2--2--2--2--2--2--2-
G--4--4-4-4---5---0---2--2--2--2--2--2--2--2-
D--4--4-4-4---5---0---2--2--2--2--2--2--2--2-
A--2--2-2-2---3---0---0--0--0--0--0--0--0--0-
E--------------------------------------------

Ending:
E---------------------------------------------------------
B---------------------------------------------------------
G--2-2--4-2--2-2--4-2--5-5-5-5-5-5-5-5--7-7-7-7-7-7-7-7--7
D--2-2--4-2--2-2--4-2--5-5-5-5-5-5-5-5--7-7-7-7-7-7-7-7--7
A---------------------------------------------------------
E---------------------------------------------------------


Текст, аккорды и табулатура для песни "Return Of The Rat", исполняет "Wipers".
Используемые в песне аккорды можно найти в разделе Как брать аккорды. Аккорды для шестиструнной гитары. Другие песни можно найти на нашем сайте, воспользовавшись алфавитным указателем вверху страницы.


 
Ошибка в тексте? Выделите ошибку и нажмите Ctrl+Enter