Is This Real?
Yes, it is. These tabs are all written out and composed by ME, John
Sixkiller. Let this be known: these are my versions of playing these
songs. They sound just like how Greg Sage himself plays them. I am not
getting paid or making any profit off of this. That being said, enjoy.
                                      -John Sixkiller
                                              3-28-03
MYSTERY

Intro: (2x)
E--12-12-12-12-12-12-12-12-12-12-12-12-12-12-12-12------------------
B--12-12-12-12-12-12-12-12-12-12-12-12-12-12-12-12------------------
G--12-12-12-12-12-12-12-12-12-12-12-12-12-12-12-12------------------
D-------------------------------------------------------------------
A-------------------------------------------------------------------
E-----------------------------------------------------0-2-3-5-5-3-2-

Verse Riff: (2x)
E------------------------------------------------------------
B------------------------------------------------------------
G------------------------------------------------------------
D--2-2-2-2-2-2-2-2-4-4-4-4-4-4-4-4-5-5-5-5-5-5-5-5-5-5-5-5-7-
A--2-2-2-2-2-2-2-2-4-4-4-4-4-4-4-4-5-5-5-5-5-5-5-5-5-5-5-5-7-
E--0-0-0-0-0-0-0-0-2-2-2-2-2-2-2-2-3-3-3-3-3-3-3-3-3-3-3-3-5-
You think I'm retrospective...

Bridge: (2x)
E----------------------------------
B----------------------------------
G----------------------------------
D--5-5-5-5-5-5-5-5-7-7-7-7-7-7-7-7-
A--5-5-5-5-5-5-5-5-7-7-7-7-7-7-7-7-
E--3-3-3-3-3-3-3-3-5-5-5-5-5-5-5-5-
But you say...

Chorus: (2x)
E------------------------------------------------------------
B------------------------------------------------------------
G------------------------------------------------------------
D--2-2-2-2-2-2-2-2-4-4-4-4-4-4-4-4-5-5-5-5-5-5-5-5-5-5-5-5-7-
A--2-2-2-2-2-2-2-2-4-4-4-4-4-4-4-4-5-5-5-5-5-5-5-5-5-5-5-5-7-
E--0-0-0-0-0-0-0-0-2-2-2-2-2-2-2-2-3-3-3-3-3-3-3-3-3-3-3-3-5-
You don't care about it...

E-------------------------------------------
B-------------------------------------------
G--12-12-12--14-14-14------12-12-12--9-9-9--
D--12-12-12--14-14-14------12-12-12--9-9-9--
A--10-10-10--12-12-12------10-10-10--7-7-7--
E-------------------------------------------
But can't you see...it's a mystery?

---------------------------------------------
You think I'm retrospective
Of someone you used to know
I think it's indecision
That leaves us a long way to go
But you say...
It's not that way...
Try to make amends
So it will never end
You don't care about it
You don't care about it
You don't care about it
You don't care about it
But can't you see...
It's a mystery
I've always tried to wonder
How it must feel to be real
In one door out the other
Undercover - you think it shows?
But you say...
It's not that way...
Try to make amends
So it will never end
You don't care about it
You don't care about it
You don't care about it
You don't care about it
But can't you see...
It's a mystery


Текст, аккорды и табулатура для песни "Mystery", исполняет "Wipers".
Используемые в песне аккорды можно найти в разделе Как брать аккорды. Аккорды для шестиструнной гитары. Другие песни можно найти на нашем сайте, воспользовавшись алфавитным указателем вверху страницы.


 
Ошибка в тексте? Выделите ошибку и нажмите Ctrl+Enter