Band:White Zombie
          Song:Super Charger Heaven
          By:Kenny Neumann
          
          2x                                                               
          G---||------------------------------------------------------------------ 
          D---||------------------------------------------------------------------ 
          A---||--3--3--2-----3--3--2-----3--3--2-----3--3--2-----3--3--3--2------ 
          D---||------------------------------------------------------------------ 
                                                                                   
                 8x                                       4x                       
          G---|----------------------------------------|-------------------------- 
          D---|----------------------------------------|-------------------------- 
          A---|----------------------------------------|-------------------------- 
          D---|--3h5--5--5-----3h5--5--5-----3h5--3p0--|--3p0--0--5p0--0--6p0----- 
                                                                                   
                                        8x                                         
          G--------------------------|-------------------------------------------- 
          D--------------------------|-------------------------------------------- 
          A--------------------------|-------------------------------------------- 
          D---0--5p0--0--0--0--0--0--|--3p0--0--5p0--0--6p0--0--5p0--0--6p0--6---- 
                                                                                   
          
                     2x                                                            
          G-------|--------------------------------------------------------------- 
          D-------|--------------------------------------------------------------- 
          A-------|--3--3--2-----3--3--2-----3--3--2-----3--3--2-----3--3--3------ 
          D---p0--|--------------------------------------------------------------- 
                                                                                
                   4x                                       4x                    
          G------|----------------------------------------|----------------------- 
          D------|----------------------------------------|----------------------- 
          A---2--|----------------------------------------|----------------------- 
          D------|--3h5--5--5-----3h5--5--5-----3h5--3p0--|--3p0--0--5p0--0--6---- 
                                                                                   
                                            8x                                     
          G------------------------------|---------------------------------------- 
          D------------------------------|---------------------------------------- 
          A------------------------------|---------------------------------------- 
          D---p0--0--5p0--0--0--0--0--0--|--3p0--0--5p0--0--6p0--0--5p0--0--6----- 
                                                                                   
                          8x                                       4x              
          G------------|----------------------------------------|----------------- 
          D------------|----------------------------------------|----------------- 
          A------------|----------------------------------------|----------------- 
          D---p0--6p0--|--3h5--5--5-----3h5--5--5-----3h5--3p0--|--0--0--0--0----- 
                                                                                   
                                               4x                                  
          G---------------------------------|------------------------------------- 
          D---------------------------------|------------------------------------- 
          A---------------------------------|------------------------------------- 
          D---0--0--0--0--0--0--0--0--0--0--|--3p0--0--5p0--0--6p0--0--5p0--0----- 
                                                                                   
                             8x                                           7x       
          G---------------|--------------------------------------------|---------- 
          D---------------|--------------------------------------------|---------- 
          A---------------|--------------------------------------------|---------- 
          D---0--0--0--0--|--3p0--0--5p0--0--6p0--0--5p0--0--6p0--6p0--|--3h5----- 
                                                                                   
          G------------------------------------|---------------------------------- 
          D------------------------------------|---------------------------------- 
          A------------------------------------|---------------------------------- 
          D---5--5-----3h5--5--5-----3h5--3p0--|--3h5--5--5-----3h5--5--5--------- 
          
          G------------------|---------------------------------------------------- 
          D------------------|---------------------------------------------------- 
          A------------------|---------------------------------------------------- 
          D---3h5--3p0--8--|----------------------------------------------------


Текст, аккорды и табулатура для песни "Supercharger Heaven", исполняет "White Zombie".
Используемые в песне аккорды можно найти в разделе Как брать аккорды. Аккорды для шестиструнной гитары. Другие песни можно найти на нашем сайте, воспользовавшись алфавитным указателем вверху страницы.


Слушать онлайн Super Charger Heaven


White ZombieSuper Charger Heaven на Яндекс.Музыке


 
Ошибка в тексте? Выделите ошибку и нажмите Ctrl+Enter