Band:White Zombie
          Song:El Phantasmo
          By:Kenny Neumann
          
          Tune down a minor third (C#, F#, B, E, G#, C#) 
           
          INTRO (play 4 times) 
          e ------------------------------------------- 
          B ------------------------------------------- 
          G ------------------------------------------- 
          D --3-/-4--------------5--------5--------5--- 
          A --1-/-2---3-/-4------3--------3--------3--- 
          E ----------1-/-2---0-----0--0-----0--0------ 
                              x     x  x     x  x 
           
          PRE-VERSE 
          e -------------------------------------------------------------- 
          B -------------------------------------------------------------- 
          G -------------------------------------------------------------- 
          D ---------------------------------------------5-5-5-5-6-6-6-6-- 
          A ---------------------------------------------5-5-5-5-6-6-6-6-- 
          E -2-0h2--0h2--0h2--0h2--0h2--0h2--0h2--0h2--0-3-3-3-3-4-4-4-4-- 
                                                                       
          VERSE 
          e ----------------- 
          B ----------------- 
          G ----------------- 
          D --3-/-4---------- 
          A --1-/-2--3-/-4--- 
          E ---------1-/-2--- 
          g 
          OUTRO 
          e --------------------------------------------------------------------------| 
          B --------------------------------------------------------------------------| 
          G --------------------------------------------------------------------------| 
          D --------------------------------------------------------------------------| 
          A --4---4---4---4---4---4---4---4---4---4---4---4---4---4-------------------| 
          E --2-0-2-0-2-0-2-0-2-0-2-0-2-0-2-0-2-0-2-0-2-0-2-0-2-0-2-------------------| 
                x   x   x   x   x   x   x   x   x   x   x   x   x 
                     (this number of chords may not be correct, listen and play along) 
           
          OUTRO 2                         Play it in this order.
          e ------------------------      INTRO 4x 
          B ------------------------      PREVERSE 4x 
          G -----7-7-7-7-8-8-9-9----      VERSE 4x
          D -----5-5-5-5-6-6-7-7----      PREVERSE 4x 
          A ------------------------      VERSE 4x 
          E ------------------------      PREVERSE 4x 
                                          x244xx chord. 
                                          PREVERSE 4x 
                                          VERSE 4x 
                                          OUTRO 3-4x 
                                          OUTRO 2 8x


Текст, аккорды и табулатура для песни "El Phantasmo", исполняет "White Zombie".
Используемые в песне аккорды можно найти в разделе Как брать аккорды. Аккорды для шестиструнной гитары. Другие песни можно найти на нашем сайте, воспользовавшись алфавитным указателем вверху страницы.


 
Ошибка в тексте? Выделите ошибку и нажмите Ctrl+Enter