#----------------------------------PLEASE NOTE---------------------------------#
#This file is the author's own work and represents their interpretation of the #
#song. You may only use this file for private study, scholarship, or research. #
#------------------------------------------------------------------------------##
[two versions]

From: Glen Norman Pavan 

artist:  White Zombie
title:  Black Sunshine
album:  La Sexorcisto:  Devil Music Vol. 1
key:  G
tuning:  standard  E A D G

intro

 riff A


E---0-3-5-0-3-5-0-3-5-0-6-5      play 16 times


riff B


D-----------------------5--
A---0-3-5-0-5-6-0-5-6-7---6        play four times
E--------------------------      


first verse

riff A  8 times

chorus

riff B  4 times

second verse

chorus

bridge

E---0-------1-2-3-4-                 play four times

guitar solo A

just play around in Emaj  for 16 measures...

third verse

E--0-0-0-0-0-0-0-0---0-0-0-0-0-0-0-6-
                                             play twice
E--0-0-0-0-0-0-0-0---6---6-----6

guitar solo B

play in Emaj for 8 measure

fourth verse:  same as third verse

fifth verse:  riff A 8 times

3rd guitar solo:  Riff B 4 times

pre-outro:

A------------8-7----------------8-7
E--0-------------------1-0--------


outro

A-----------------------------2-----------------------2-----3---4
E-0-0-0-0-0-0-0-0-0-0-0-0-0-1---1-0-0-0-0-0-0-0-0-0-1---1-2---3--

A-----------------------------2----------------------------------
E-0-0-0-0-0-0-0-0-0-0-0-0-0-1---1-0-0-0-0-0-0-0-0---------------

A-----------------------------2-----------------------2-----3---4
E-0-0-0-0-0-0-0-0-0-0-0-0-0-1---1-0-0-0-0-0-0-0-0-0-1---1-2---3--

A-----------------------------2------------------------------------
E-0-0-0-0-0-0-0-0-0-0-0-0-0-1---1-0-0-0-0-0-0-0-0-3-----------------

D----------3------2--------
A------------2------1------
E-----1--0-----0------0-1-0



questions, corrections to [email protected]
                       -I'm here, I'm queer, I play 5-string bass




From: [email protected] (Slaine)
Date: 28 Oct 95 01:53:00 +0200
Subject: Bass tab for White Zombie's Black Sunshine
Message-ID: 

From: [email protected]


               Black Sunshine - White Zombie
               Bass Tab
               Help got from Guitar School Magazine
               Transcribed by Michael DuClos

   Notation:
   ---------

   h = hammer-on
    = slide down (towards tuning knobs)
   

   Intro
   Freely
=125

 & 1st & 2nd Verses
   1.Move me in...
   2.Cry a river...
                                  Gripping the wheel...
   Em    (Play 8 times)           (Play 8 times) or as required.
--|------------------------|-----------------------|--
--|------------------------|-----------------------|--
--|------------------------|-----------------------|--
--|0-3-5-0-3-5-0-3-5-0-6-5-|0-3-5-0-3-5-0-3-5-0-6-5|--

   1st and 2nd Choruses
   Sweet'n the ride...
--|------------------------|-----------------------|--
--|--------------------5---|--------------------5--|--
--|0-3-5-0-5-6-0-5-6-7---6-|0-3-5-0-5-6-0-5-6-7--6-|--
--|------------------------|-----------------------|--

--|------------------------|-----------------------|--
--|--------------------5---|-----------------------|--
--|0-3-5-0-5-6-0-5-6-7---0-|-0-------------1-2-3-4-|--
--|------------------------|-----------------------|--

   1st Guitar Solo

--|------------------------|-----------------------|--
--|------------------------|-----------------------|--
--|7--7--7--7-7-7-7-7--7--7|5----------------1--2--|--
--|------------------------|--0--0--0--0--0--------|--


--|------------------------|-----------------------|--
--|------------------------|-----------------------|--
--|7--7--5--7-7-7-7-7--7--7|5h7--7--7--------------|--
--|------------------------|-------------(0)--2--3-|--


--|------------------------|-----------------------|--
--|------------------------|-----------------------|--
--|7--7--5--7-7-7-7-7--7--7|5h7--7--7----7---------|--
--|------------------------|----------------6--7---|--

--|------------------------|-----------------------|--
--|------------------------|-----------------------|--
--|7--7--5--7--7--7--7--7--|5h7--7--7--7-----------|--
--|------------------------|----------------0--2--3|--


--|------------------------|-----------------------|--
--|------------------------|-----------------------|--
--|7--7--5-(7)7-7--7-7-7--7|5h7--7--7----7---------|--
--|------------------------|----------------6--7---|--


--|------------------------|-----------------------|--
--|------------------------|-----------------------|--
--|7--7--5--7-7-7--7-7-----|-----------------------|--
--|--------------------0--0|0--0--0--0----0--2--3--|--


--|------------------------|-----------------------|--
--|------------------------|-----------------------|--
--|7--7--5-(7)7-7--7-7-7--7|5h7--7--7----7---------|--
--|------------------------|----------------6--7---|--


--|------------------------|-----------------------|--
--|------------------------|-----------------------|--
--|7--7--5--7-7-7--7-7-7--7|5h7--7--7--------------|--
--|------------------------|-------------0--2--3---|--

   3rd & 4th Verses

    3. Slide into...
    4. To the devil...

--|------------------------|-----------------------|--
--|------------------------|-----------------------|--
--|------------------------|-----------------------|--
--|0--0--0--0--0--0--0--0--|0--0--0--0--0-0-0-0--6-|--

--|------------------------|-----------------------|--
--|------------------------|-----------------------|--
--|------------------------|-----------------------|--
--|0--0--0--0--0--0--0--0--|6----6--0--6-------|--


   2nd Guitar Solo

--|------------------------|-----------------------|--
--|------------------------|-----------------------|--
--|------------7-7-7-7-7---|5----------------------|--
--|0--0--0--0--------------|---0--0--0----0--6--7--|--

--|------------------------|-----------------------|--
--|------------------------|-----------------------|--
--|7--7--5--7-7-7-7-7-7-7--|5h7--7--7--------------|--
--|------------------------|-------------0--2--3---|--

--|------------------------|-----------------------|--
--|------------------------|-----------------------|--
--|7--7--5--7-7-7-7-7-7-7--|5----------------------|--
--|------------------------|---0--0--0----0--6--7--|--

--|------------------------|-----------------------|--
--|------------------------|-----------------------|--
--|7--7--5--7-7-7-7-7--7--7|5h7--7--7--------------|--
--|------------------------|-------------0--2--3---|--

   3rd Chorus/5th Verse     3rd Guitar Solo
    Sweet'n the ride...

--|------------------------|-----------------------|--
--|------------------------|--------------------5--|--
--|------------------------|0-3-5-0-5-6-0-5-6-7---6|--
--|0-3-5-0-3-5-0-3-5-0-6-5-|-----------------------|--

   (Half-time feel)
   
--|------------------------|-----------------------|--
--|------------------------|-----------------------|--
--|------------------------|-----------------------|--
--|--0-----------8----7----|-1---0----------8----7-|--

   Outro
    Finally...

--|------------------------|-----------------------|--
--|------------------------|-----------------------|--
--|------------------------|------------------2----|--
--|0--0--0--0--0--0--0--0--|0--0--0--0--0--1-----1-|--

--|------------------------|-----------------------|--
--|------------------------|-----------------------|--
--|------------------------|------2--------3-----4-|--
--|0--0--0--0--0--0--0--0--|0--1-----1--2-----3----|--

--|------------------------|-----------------------|--
--|------------------------|-----------------------|--
--|------------------------|------------------2----|--
--|0--0--0--0--0--0--0--0--|0--0--0--0--0--1-----1-|--

--|------------------------|-----------------------|--
--|------------------------|-----------------------|--
--|------------------------|-----------------------|--
--|0--0--0--0--0--0--0--0--|--3-----------------1--|--

--|------------------------|-----------------------|--
--|-----3--------2---------|-----------------------|--
--|--------2--------1------|-----------------------|--
--|0----------0--------0--1|--0--------------------|--

                The End...

Typed by Nick Antonis - [email protected]
                        [email protected]

Hope you injoy it!!!!


| FidoNet:  Slaine 5:7102/129
| Internet: [email protected]
|
| Standard disclaimer: The views of this user are strictly his own.
| From Chameleon BBS   +27-21-462-4580 or +27-21-461-0140


Текст, аккорды и табулатура для песни "Black Sunshine", исполняет "White Zombie".
Используемые в песне аккорды можно найти в разделе Как брать аккорды. Аккорды для шестиструнной гитары. Другие песни можно найти на нашем сайте, воспользовавшись алфавитным указателем вверху страницы.


Слушать онлайн Black Sunshine


Iggy PopBlack Sunshine на Яндекс.Музыке


 
Ошибка в тексте? Выделите ошибку и нажмите Ctrl+Enter