Tabbed By John Calkins


Song: You've Got Her In Your Pocket
Band: The White Stripes
Album: ELEPHANT


Another classic from the White Stripes. 
This is pretty freakin close.

Intro:

  D                          G                                   
e|-----------2------------------------------------|
b|--------3-----3---------------------------------|
g|-----2-----------2------------------0-----------|
d|--0-----------------0------------0-----0--------|
a|------------------------------2-----------2--0--|
E|---------------------------3--------------------|    
          


  C                             D                        
e|---------------------------------------2h3-------------|
b|------------------------------------3-------3----------|
g|--------0-----------0------------2-------------2-------|
d|-----2-----2-----0-----0------2-------------------2----|
a|--3-----------2----------------------------------------|
E|-------------------------------------------------------|
  

  D                          G                                   
e|-----------2------------------------------------|
b|--------3-----3---------------------------------|
g|-----2-----------2------------------0-----------|
d|--0-----------------0------------0-----0--------|
a|------------------------------2-----------2--0--|
E|---------------------------3--------------------|    
  


  C                             D                        
e|---------------------------------------2h3-------------|
b|------------------------------------3-------3----------|
g|--------0-----------0------------2-------------2-------|
d|-----2-----------0------------2-------------------2----|
a|--3-----------2--------0-------------------------------|
E|-------------------------------------------------------|


Chorus 1:

  D                          G                                   
e|-----------2------------------------------------|
b|--------3-----3---------------------------------|
g|-----2-----------2------------------0-----------|
d|--0-----------------0------------0-----0--------|
a|------------------------------2-----------2--0--|
E|---------------------------3--------------------|    
  You've got her in your pocket        


  C                             D                        
e|---------------------------------------2h3-------------|
b|------------------------------------3-------3----------|
g|--------0-----------0------------2-------------2-------|
d|-----2-----2-----0-----0------2-------------------2----|
a|--3-----------2----------------------------------------|
E|-------------------------------------------------------|
  And    there's   no     way     out      now


Chorus:

  D                          G                                   
e|-----------2------------------------------------|
b|--------3-----3---------------------------------|
g|-----2-----------2------------------0-----------|
d|--0-----------------0------------0-----0--------|
a|------------------------------2-----------2--0--|
E|---------------------------3--------------------|    
      Put it in the safe and lock it


  C                             D                        
e|------------------------|
b|------------------------|
g|--------0--------0------|
d|-----2--------0---------|
a|--3--------2--------0---|
E|------------------------|
cause it's home sweet home   


Verse 1:
Am                                           G     D
        Nobody ever told you that it was the wrong way

Am                                            G   D
   To trick a woman, make her feel she did it her way

C                                      G                   E|-3--0--2--3----| 
 And you'll be there if she ever feels blue                

C                                           F
 And you'll be there when she finds someone new

        A
What to do

Well you know




Chorus 2:
You keep her in your pocket
Where there's no way out now
Put it in a safe a lock it
'cause it's home sweet home


Verse 2:
The smile on your face made her think she had the right one
Then she thought she was sure
By the way you two could have fun
But now she might leave
Like she's threatened before
Grab hold of her fast
Before her feet leave the floor
And she's out the door
'cause you want


Chorus 3:
To keep her in your pocket
Where there's no way out now
Put it in a safe a lock it
'cause it's home sweet home

Verse 3:
And in your own mind
You know your're lucky just to know her
And in the beginning all you wanted was to show her
But now you're scared
You think she's running away
You search in your hand for something clever to say
Don't go away
'cause I want

Chorus 4:
To keep you in my pocket
Where there's no way out now
Put it in a safe a lock it
'cause it's home sweet home

C    G     A
home sweet home

==========================================


Текст, аккорды и табулатура для песни "Youve Got Her In Your Pocket", исполняет "White Stripes".
Используемые в песне аккорды можно найти в разделе Как брать аккорды. Аккорды для шестиструнной гитары. Другие песни можно найти на нашем сайте, воспользовавшись алфавитным указателем вверху страницы.


 
Ошибка в тексте? Выделите ошибку и нажмите Ctrl+Enter