-------------------------------------------------------------------------------
           THE WHITE STRIPES - You've got her in Your Pocket
-------------------------------------------------------------------------------
Tabbed by: Sean Cook
Email:[email protected] (www.cookyonline.8m.com)

Tuning: Standard


Introduction/Chorus

  D             G             C       C/B     Am7

e|-------2-------------------------------------------------------------------|
B|-----3---3-----------------------------------------2h3-2-------------------|
G|---2-------2---------0-----------0-------0-------0-------------------------|
D|-0-----------0-----0---0---0---2---2---0---0---2---------------------------|
A|-----------------2-------2---3-------2-------0-----------------------------|
E|---------------3-----------------------------------------------------------|


Verse

  Am7  Am                                   G     D
       Nobody ever told you that it was the wrong way
       To trick a woman, make her feel ...  her way
e|-0----0------------------------------------3-----2h3p2-2-------------------|
B|-1----1------------------------------------3-----3-----3-------------------|
G|-0----2------------------------------------0-----2-----2-------------------|
D|-2----2------------------------------------0-----0-----0-------------------|
A|-0----0------------------------------------2-------------------------------|
E|-------------------------------------------3-------------------------------|

  C                                     G
  And you'll be there if she ever feels blue
e|-0-------------------------------------3-3---------3-----------------------|
B|-1-------------------------------------3-3---------3-----------------------|
G|-0-------------------------------------0-0---------0-----------------------|
D|-2-------------------------------------0-0---------0-----------------------|
A|-3-------------------------------------2-2---------2-----------------------|
E|---------------------------------------3-3-0-1-2-3-3-----------------------|

  C                                          F            A
  And you'll be there when she finds someone new, what to do...
e|-0------------------------------------------1------------0-----------------|
B|-1------------------------------------------1------------2-----------------|
G|-0------------------------------------------2------------2-----------------|
D|-2------------------------------------------3------------2-----------------|
A|-3------------------------------------------3------------0-----------------|
E|---------------------------------------------------------------------------|

Then back to the introduction/verse...simple as that!
My first attempt at a
tab, but I think it goes OK.

| /  slide up
|   slide down
| h  hammer-on
| p  pull-off
| ~  vibrato
| +  harmonic
| x  Mute note
===============================================================================


Текст, аккорды и табулатура для песни "Youve Got Her In Your Pocket", исполняет "White Stripes".
Используемые в песне аккорды можно найти в разделе Как брать аккорды. Аккорды для шестиструнной гитары. Другие песни можно найти на нашем сайте, воспользовавшись алфавитным указателем вверху страницы.


 
Ошибка в тексте? Выделите ошибку и нажмите Ctrl+Enter