-----------------------------------------------------------------
         You’ve Got Her In Your Pocket – White Stripes 
-----------------------------------------------------------------
Tabbed by: Andrew Koehler
Email: [email protected]

This tab should be 100% right…If not then send me corrections and I will change
it. This song is pretty easy to figure just by ear. You can figure out the timing
for the chorus and intro and all that by listening to the song. Here’s how I play
it. Thanks and enjoy.

Tuning: EADGBe
Intro and Chorus
e|----------2----------------------------------------------------|
B|--------3---3------------------------------------------2/3-2-0-|
G|------2-------2----------0-----0-----0-------0-------2---------|
D|----0-----------0------0-----0-----2---2---0---0---2-----------|
A|---------------------2-----2-----3-------2-------0-------------|
E|-------------------3-------------------------------------------|
Verse
   Am    G    D     D
e|--0----3----23h2--2--------------------------------------------|
B|--1----3----3-----3--------------------------------------------|
G|--2----0----2-----2--------------------------------------------|x2
D|--2----0----0-----0--------------------------------------------|
A|--0----2----0-----0--------------------------------------------|
E|--0----3----0-----0--------------------------------------------|
   C  G          G
e|-0--0----------3-----------------------------------------------|
B|-1--0----------3-----------------------------------------------|
G|-0--0----------0-----------------------------------------------|x1
D|-2--0----------0-----------------------------------------------|
A|-3--2----------2-----------------------------------------------|
E|-0--3--1-1-3-3-3-----------------------------------------------|
   C   F   A
e|-0---0---0-----------------------------------------------------|
B|-1---0---2-----------------------------------------------------|
G|-0---2---2-----------------------------------------------------|
D|-2---3---2-----------------------------------------------------|x1
A|-3---3---0-----------------------------------------------------|
E|-0---1---0-----------------------------------------------------|

Last Verse

   Am    G    D     D
e|--0----3----23h2--2--------------------------------------------|
B|--1----3----3-----3--------------------------------------------|
G|--2----0----2-----2--------------------------------------------|x1
D|--2----0----0-----0--------------------------------------------|
A|--0----2----0-----0--------------------------------------------|
E|--0----3----0-----0--------------------------------------------|

   Am    G    D     D
e|--0----3----23h2--2--------------------------------------------|
B|--1----3----3-----3--------------------------------------------|
G|--2----0----2-----2--------------------------------------------|x1
D|--2----0----0-----0--------------------------------------------|
A|--0----2----0-----0--0-0-3-3-----------------------------------|
E|--0----3----0-----0--------------------------------------------|

   C  G          G
e|-0--0----------3-----------------------------------------------|
B|-1--0----------3-----------------------------------------------|
G|-0--0----------0-----------------------------------------------|x1
D|-2--0----------0-----------------------------------------------|
A|-3--2----------2-----------------------------------------------|
E|-0--3--1-1-3-3-3-----------------------------------------------|
   C   F   A
e|-0---0---0-----------------------------------------------------|
B|-1---0---2-----------------------------------------------------|
G|-0---2---2-----------------------------------------------------|
D|-2---3---2-----------------------------------------------------|x1
A|-3---3---0-----------------------------------------------------|
E|-0---1---0-----------------------------------------------------|

Ending

   C   G   A
e|-0---3---0-----------------------------------------------------|
B|-1---3---2-----------------------------------------------------|
G|-0---0---2-----------------------------------------------------|
D|-2---0---2-----------------------------------------------------|x1
A|-3---2---0-----------------------------------------------------|
E|-0---3---0-----------------------------------------------------|


Текст, аккорды и табулатура для песни "Youve Got Her In Your Pocket", исполняет "White Stripes".
Используемые в песне аккорды можно найти в разделе Как брать аккорды. Аккорды для шестиструнной гитары. Другие песни можно найти на нашем сайте, воспользовавшись алфавитным указателем вверху страницы.


 
Ошибка в тексте? Выделите ошибку и нажмите Ctrl+Enter