intro:
G|------------|------------|------------|------------|------------|
D|------------|------------|------------|------------|------------|
A|------------|------------|------------|------------|------------|
E|-0--0--0--0-|-0--0--0--0-|-0--0--0--0-|-0--0--0--0-|-0--0--0--0-|

G|------------|------------|------------|------------|------------|
D|------------|------------|------------|------------|------------|
A|------------|------------|------------|------------|------------|
E|-3--3--3--3-|-0--0--0--0-|-3--3--3--3-|-0--0--0--0-|-3--3--3--3-|

G|------------|------------|------------|------------|------------|
D|------------|------------|------------|------------|------------|
A|------------|------------|------------|------------|------------|
E|-2--2--2--2-|-5--5--5--5-|-0--0--0--0-|-3--3--3--3-|-0--0--0--0-|

G|------------|------------|------------|------------|------------|
D|------------|------------|------------|------------|------------|
A|------------|------------|------------|------------|------------|
E|-3--3--3--3-|-0--0--0--0-|-3--3--3--3-|-2--2--2--2-|-5--5--5--5-|

verse:
G|------------|------------|------------|------------|------------|
D|------------|------------|------------|------------|------------|
A|------------|------------|------------|------------|------------|
E|-0--0--0--0-|-3--3--3--3-|-0--0--0--0-|-3--3--3--3-|-0--0--0--0-|

G|------------|------------|------------|------------|------------|
D|------------|------------|------------|------------|------------|
A|------------|------------|------------|------------|------------|
E|-3--3--3--3-|-2--2--2--2-|-5--5--5--5-|-0--0--0--0-|-3--3--3--3-|

G|------------|------------|------------|------------|------------|
D|------------|------------|------------|------------|------------|
A|------------|------------|------------|------------|------------|
E|-0--0--0--0-|-3--3--3--3-|-0--0--0--0-|-3--3--3--3-|-2--2--2--2-|

G|------------|
D|------------|
A|------------|
E|-1--1--1--1-|

chorus:
not playing bass

verse:
G|------------|------------|------------|------------|------------|
D|------------|------------|------------|------------|------------|
A|------------|------------|------------|------------|------------|
E|-0--0--0--0-|-0--0--0--0-|-0--0--0--0-|-0--0--0--0-|-0--0--0--0-|

G|------------|------------|------------|------------|------------|
D|------------|------------|------------|------------|------------|
A|------------|------------|------------|------------|------------|
E|-3--3--3--3-|-0--0--0--0-|-3--3--3--3-|-0--0--0--0-|-3--3--3--3-|

G|------------|------------|------------|------------|------------|
D|------------|------------|------------|------------|------------|
A|------------|------------|------------|------------|------------|
E|-2--2--2--2-|-5--5--5--5-|-0--0--0--0-|-3--3--3--3-|-0--0--0--0-|

G|------------|------------|------------|------------|------------|
D|------------|------------|------------|------------|------------|
A|------------|------------|------------|------------|------------|
E|-3--3--3--3-|-0--0--0--0-|-3--3--3--3-|-2--2--2--2-|-1--1--1--1-|

chorus:
not playing bass

outro:
G|-------------|------------|-------------|------------|-------------|
D|-------------|------------|-------------|------------|-------------|
A|-------------|------------|-------------|------------|-------------|
E|-0-0-0-0---0-|-0--0--0--0-|-3-3-3-3---3-|-3--3--3--3-|-0-0-0-0---0-|

G|------------|-------------|---------------|
D|------------|-------------|---------------|
A|------------|-------------|---------------|
E|-0--0--0--0-|-3-3-3-3---3-|-3--3--3-5~6-5-|

G|---------------|-------------|------------|-------------|---------|
D|---------------|-------------|------------|-------------|---------|
A|---------------|-------------|------------|-------------|---------|
E|-.--.--3-5~6-5-|-0-0-0-0---0-|-0--0--0--0-|-3-3-3-3---3-|-0-0-0-0-|


Текст, аккорды и табулатура для песни "The Hardest Button To Button", исполняет "White Stripes".
Используемые в песне аккорды можно найти в разделе Как брать аккорды. Аккорды для шестиструнной гитары. Другие песни можно найти на нашем сайте, воспользовавшись алфавитным указателем вверху страницы.


 
Ошибка в тексте? Выделите ошибку и нажмите Ctrl+Enter