Artist: White Stripes
Song: Hardest Button to Button
Album: Elephant
Tuning: Standard

This is one tab that has been bothering me. It took me a while to learn it down.
comments or questions. AIM: HIM3388 or Ozzman3388

intro (2x)
G|------------------------|
D|------------------------|
A|------------------------|
E|-5--5--5--5--5--5--5--5-|

verse: (3x)
G|------------------------|
D|------------------------|
A|------------------------|
E|-5--5--5--5/-8--8--8--8| 3x

G|----------------------------|
D|----------------------------|
A|----------------------------|
E|-7--7--7--7--10--10--10--10-| 1x

prechorus: (1x)
G|------------------------|
D|------------------------|
A|------------------------|
E|-5--5--5--5/-8--8--8--8| 3x

G|------------------------|
D|------------------------|
A|------------------------|
E|-7--7--7--7--6--6--6--6-| 1x


chorus: 1x
G|------------------------------|
D|------------------------------|
A|----------------------(0)-----|
E|-5--5----5-0-5-8--8----8-10-8-| 3x

G|----------------------------|
D|----------------------------|
A|----------------------------|
E|7--7----7-0-7-6--6----6-0-6-| 1x

bridge: 1x
G|-------------|
D|-------------|
A|-------------|
E|-5555----8888| 3x


G|-------------|
D|-------------|
A|-------------|
E|-7777----6666| 1x

When looking at the tab. It tells basiclly how to play it.
Just play as many times as I show. 1X well, not to hard for a person to do...


Текст, аккорды и табулатура для песни "The Hardest Button To Button", исполняет "White Stripes".
Используемые в песне аккорды можно найти в разделе Как брать аккорды. Аккорды для шестиструнной гитары. Другие песни можно найти на нашем сайте, воспользовавшись алфавитным указателем вверху страницы.


 
Ошибка в тексте? Выделите ошибку и нажмите Ctrl+Enter