Band - The White Stripes
Song - The hardest button to button

Intro and first verse: (0:07 - 0:51) 
e---------------------------------------------------------------------	|
B---------------------------------------------------------------------	|
G------2----------------5----------------2---------------5------------	|
D----------2----------------5----------------2--------------5--------- 	|
A---0---------0-----3---------3-----0----------0----3---------3------- 	|
E---------------------------------------------------------------------	|

e---------------------------------------------------------------------	|
B---------------------------------------------------------------------	|
G------2----------------5----------------4---------------7------------	|
D----------2----------------5----------------4--------------7--------- 	|
A---0---------0-----3---------3-----2----------2----5---------5------- 	|
E---------------------------------------------------------------------	|
Play 3 times


Pre chorus: (0:52 - 1:06)
e---------------------------------------------------------------------	|
B---------------------------------------------------------------------	|
G------2----------------5----------------2---------------5------------	|
D----------2----------------5----------------2--------------5--------- 	|
A---0---------0-----3---------3-----0----------0----3---------3------- 	|
E---------------------------------------------------------------------	|

e---------------------------------------------------------------------	|
B---------------------------------------------------------------------	|
G------2----------------5----------------4---------------3------------	|
D----------2----------------5----------------4--------------3--------- 	|
A---0---------0-----3---------3-----2----------2----1---------1------- 	|
E---------------------------------------------------------------------	|
Play once


Chorus: (1:07 - 1:21)
e---------------------------------------------------------------------	|
B---------------------------------------------------------------------	|
G---2--2--2-2-2--5--5--5-5-5------------------------------------------	|
D---2--2--2-2-2--5--5--5-5-5------------------------------------------ 	|
A---0--0--0-0-0--3--3--3-3-3------------------------------------------ 	|
E---------------------------------------------------------------------	|
Play 3 times

e---------------------------------------------------------------------	|
B---------------------------------------------------------------------	|
G---4--4--4-4-4--3--3--3-3-3------------------------------------------	|
D---4--4--4-4-4--3--3--3-3-3------------------------------------------ 	|
A---2--2--2-2-2--1--1--1-1-1------------------------------------------ 	|
E---------------------------------------------------------------------	|
Play once


Interlude: (1:22 - 1:36)
e---------------------------------------------------------------------	|
B---------------------------------------------------------------------	|
G---2---2---2---2-------5---5---5---5---------------------------------	|
D---2---2---2---2-------5---5---5---5--------------------------------- 	|
A---0---0---0---0-------3---3---3---3--------------------------------- 	|
E---------------------------------------------------------------------	|
Play 3 times

e---------------------------------------------------------------------	|
B---------------------------------------------------------------------	|
G---4---4---4---4-------7---7---7---7---------------------------------	|
D---4---4---4---4-------7---7---7---7--------------------------------- 	|
A---2---2---2---2-------5---5---5---5--------------------------------- 	|
E---------------------------------------------------------------------	|
Play once


Verse: (1:44 - 1:58)
e---------------------------------------------------------------------	|
B---------------------------------------------------------------------	|
G------2----------------5----------------2---------------5------------	|
D----------2----------------5----------------2--------------5--------- 	|
A---0---------0-----3---------3-----0----------0----3---------3------- 	|
E---------------------------------------------------------------------	|

e---------------------------------------------------------------------	|
B---------------------------------------------------------------------	|
G------2----------------5----------------4---------------7------------	|
D----------2----------------5----------------4--------------7--------- 	|
A---0---------0-----3---------3-----2----------2----5---------5------- 	|
E---------------------------------------------------------------------	|
Play once


Pre chorus: (1:59 - 2:13)
e---------------------------------------------------------------------	|
B---------------------------------------------------------------------	|
G------2----------------5----------------2---------------5------------	|
D----------2----------------5----------------2--------------5--------- 	|
A---0---------0-----3---------3-----0----------0----3---------3------- 	|
E---------------------------------------------------------------------	|

e---------------------------------------------------------------------	|
B---------------------------------------------------------------------	|
G------2----------------5----------------4---------------3------------	|
D----------2----------------5----------------4--------------3--------- 	|
A---0---------0-----3---------3-----2----------2----1---------1------- 	|
E---------------------------------------------------------------------	|
Play once


Chorus: (2:14 - 2:28)
e---------------------------------------------------------------------	|
B---------------------------------------------------------------------	|
G---2--2--2-2-2--5--5--5-5-5------------------------------------------	|
D---2--2--2-2-2--5--5--5-5-5------------------------------------------ 	|
A---0--0--0-0-0--3--3--3-3-3------------------------------------------ 	|
E---------------------------------------------------------------------	|
Play 3 times

e---------------------------------------------------------------------	|
B---------------------------------------------------------------------	|
G---4--4--4-4-4--3--3--3-3-3------------------------------------------	|
D---4--4--4-4-4--3--3--3-3-3------------------------------------------ 	|
A---2--2--2-2-2--1--1--1-1-1------------------------------------------ 	|
E---------------------------------------------------------------------	|
Play once


Interlude: (2:29 - 2:58)
e---------------------------------------------------------------------	|
B---------------------------------------------------------------------	|
G---2---2---2---2-------5---5---5---5---------------------------------	|
D---2---2---2---2-------5---5---5---5--------------------------------- 	|
A---0---0---0---0-------3---3---3---3--------------------------------- 	|
E---------------------------------------------------------------------	|
Play 7 times

e---------------------------------------------------------------------	|
B---------------------------------------------------------------------	|
G---4---4---4---4-------3---3---3---3---------------------------------	|
D---4---4---4---4-------3---3---3---3--------------------------------- 	|
A---2---2---2---2-------1---1---1---1--------------------------------- 	|
E---------------------------------------------------------------------	|
Play once


End: (2:59 - 3:30)
e---------------------------------------------------------------------	|
B---------------------------------------------------------------------	|
G---2---2---2---2-----------------5---5---5---5-----------------------	|
D---2---2---2---2-----------------5---5---5---5----------------------- 	|
A---0---0---0---0-----------------3---3---3---3----------------------- 	|
E---------------------------------------------------------------------	|
Play 4 times

e---------------------------------------------------------------------	|
B---------------------------------------------------------------------	|
G---2---2---2---2-----------------------------------------------------	|
D---2---2---2---2----------------------------------------------------- 	|
A---0---0---0---0----------------------------------------------------- 	|
E---------------------------------------------------------------------	|
Play once

Cheers
Elb


Текст, аккорды и табулатура для песни "The Hardest Button To Button", исполняет "White Stripes".
Используемые в песне аккорды можно найти в разделе Как брать аккорды. Аккорды для шестиструнной гитары. Другие песни можно найти на нашем сайте, воспользовавшись алфавитным указателем вверху страницы.


 
Ошибка в тексте? Выделите ошибку и нажмите Ctrl+Enter