THE HARDEST BUTTON TO BUTTON - The White Stripes

Tabbed by: *Truly Ninja*
Email: [email protected]

Tuning:EADGBe (Standard)

YAY! It's my first tab that I completely ear-transcribed with no help!

Riff One 0:00 - 1:07
e|-------------------------------------------------------------------------------------------|
B|-------------------------------------------------------------------------------------------|
G|-------------------------------------------------------------------------------------------|
D|-------------7---------10--------7--------10--------7--------10---------9--------12--------|
A|---------------7----------10-------7---------10-------7---------10--------9---------12-----|
E|--5-(x16)--5-----5---8-------8--5----5--8-------8-5-----5--8-------8--7-----7-10-------10--|

Riff Deux 1:08 - 1:37
e|---------------------------------------------------------------------------|
B|---------------------------------------------------------------------------|
G|---------------------------------------------------------------------------|
D|--7-7--7-7-7--10-10--10-10-10------9-9-9-9--8-8-8-8------------------------|
A|--7-7--7-7-7--10-10--10-10-10-(x3)-9-9-9-9--8-8-8-8------------------------|
E|--5-5--5-5-5--8--8---8--8--8-------7-7-7-7--6-6-6-6------------------------|
(For the second part you play the same chords in a different rythym, it's easy to figure out.)

1:38 - 2:14 Riff One

2:15 - 2:45 Riff Deux

2:46 - 3:01 The SECOND PART of Riff Deux

3:02 - 3:17 This:
e|---------------------------------------------------------------------------|
B|---------------------------------------------------------------------------|
G|---------------------------------------------------------------------------|
D|---------------------7-7-7-7-----------------10-10-10-10-------------------|
A|---------------------7-7-7-7-----------------10-10-10-10-------------------|
E|---5-5-5-5-5-5-5-5-5-5-5-5-5-5-5-5-5-5-5-5-5-8--8--8--8--------------------|

3:18 - 3:32 The SECOND PART of Riff Deux


Текст, аккорды и табулатура для песни "The Hardest Button To Button", исполняет "White Stripes".
Используемые в песне аккорды можно найти в разделе Как брать аккорды. Аккорды для шестиструнной гитары. Другие песни можно найти на нашем сайте, воспользовавшись алфавитным указателем вверху страницы.


 
Ошибка в тексте? Выделите ошибку и нажмите Ctrl+Enter