Tuning E A E A C# E

Intro/Verse              Chorus               Pre/Post Chorus
------------------ ------------------------ -------------------0-   
------------------ ---/7--/10--7--5--3--2-- -------------------0-      
------------------ ---/7--/10--7--5--3--2-- -------------------0-    
------------------ ---/7--/10--7--5--3--2-- -------------------0-      
---7-7-10-7-5-3-2- ---/7--/10--7--5--3--2-- ---5-5-5-5-5-5-5-5-0-     
------------------ ---/7--/10--7--5--3--2-- ---3-3-3-3-3-3-3-3-0-
Solo
-----------------------------------------------------------------
-----------------------------------------------------------------
---------------------109-(9)--------10-12-10-10/12-10-9-0-----
---12-12-12-(12)-12----------------12-----------------------/12-
--------------------------------/12--------------------------/12-
--------------------------------/12------------------------------

--------------------------------------------------------/12-12---
-----------------------------------------------------------------
----------10----/109-(9)--------10-12-10-10/12-10-9-0----------
-12-12-12----12------------/12-12--------------------------------
-12-12---------------------/12-12--------------------------------
---------------------------/12-----------------------------------

-12/15-12-12/1514-(14)-/12-12/15-17-15-15/17-15-14-(14)-0----
------------------------0----------------------------------------
-----------------------------------------------------------------
-----------------------------------------------------------------
-----------------------------------------------------------------
-----------------------------------------------------------------

-/12-12-12/14-/12-12-/1714-(14)-0-/12-12-12/14-12-(12)-12-/14---
-----------------------------------------------------------------
-----------------------------------------------------------------
-----------------------------------------------------------------
-----------------------------------------------------------------
-----------------------------------------------------------------

-12-(12)---------------------------------------------------------
---------11-10-(10)---/10---/12---12---------------------------
---------------------0-/10---/12---12---------------------------
-----------------------/10---/12---12---------------------------
-----------------------------/12---12---------------------------
-----------------------------------12---------------------------


Текст, аккорды и табулатура для песни "Seven Nation Army (ver 15)", исполняет "White Stripes".
Используемые в песне аккорды можно найти в разделе Как брать аккорды. Аккорды для шестиструнной гитары. Другие песни можно найти на нашем сайте, воспользовавшись алфавитным указателем вверху страницы.


 
Ошибка в тексте? Выделите ошибку и нажмите Ctrl+Enter