Seven Nation Army
White Stripes

Beginning is just bass  


Pre-chorus: 
E|-------------------------------------------------------------|
B|-------------------------------------------------------------|
G|-------------------------------------------------------------|
D|---7---9-----------------------------------------------------|
A|---7---9-----------------------------------------------------|
E|---5---7-----------------------------------------------------|

  Chorus: 
E|---------------------------------------------------------------------------|
B|---------------------------------------------------------------------------|
G|----9-9--12--9--7--5--4----9-9--12--9--7--5--7--5--4-----------------------|
D|----9-9--12--9--7--5--4----9-9--12--9--7--5--7--5--4------(x2)-------------|
A|----7-7--10--7--5--3--2----7-7--10--7--5--3--5--3--2-----------------------|
E|---------------------------------------------------------------------------|

  
 Post-chorus (same as pre)
E|----------------------------------------------------------------|
B|----------------------------------------------------------------|
G|----------------------------------------------------------------|
D|---7------9-----------------------------------------------------|
A|---7-(x8)-9—(x8)------------------------------------------------|
E|---5------7-----------------------------------------------------|

 Back to into/verse

 Go to Post-chorus

 Chorus is playing, while a solo is also playing.
 Solo:
E|---------------------------------------------------------------------------|
B|---------------------------------------------------------------------------|
G|-9-9-12-9-9-12-14----------------------------------------------------------|
D|-----------------------------2x--------------------------------------------|
A|---------------------------------------------------------------------------|
E|---------------------------------------------------------------------------|

E|-12-12-15-12-15-15-14/-12-12-15-17-15-15-17-15-14-------------------------|
B|---------------------------------------------------------------------------|
G|---------------------------------------------------------------------------|
D|---------------------------------------------------------------------------|
A|---------------------------------------------------------------------------|
E|---------------------------------------------------------------------------|
  
E|-12-12-14-12-17-15/-12-12-14-12-14-14-12----------------------------------|
B|------------------------------------------13-12----------------------------|
G|---------------------------------------------------------------------------|
D|---------------------------------------------------------------------------|
A|---------------------------------------------------------------------------|
E|---------------------------------------------------------------------------|


Текст, аккорды и табулатура для песни "Seven Nation Army (ver 13)", исполняет "White Stripes".
Используемые в песне аккорды можно найти в разделе Как брать аккорды. Аккорды для шестиструнной гитары. Другие песни можно найти на нашем сайте, воспользовавшись алфавитным указателем вверху страницы.


 
Ошибка в тексте? Выделите ошибку и нажмите Ctrl+Enter