BAND:		The White Stripes
SONG:		Seven Nation Army
ALBUM:		Elephant
TUNING:		Normal (eBGDAE)
TABBED BY:	Michael Malone
E-MAIL:		[email protected]


I tabbed this out as best as I could.  I'm not really a fan of modern rock, but
for some reason, The White Stripes just stand out more than other bands.  They
are a good band, and this is a pretty bad ass song.  I hope everything is here
and that I help someone out.  Feedback is welcome.

e|---------------------|
B|---------------------|
G|---------------------|
D|---------------------|
A|--7--7-10-7----------|
E|------------10--8-7--| X 12

e|---------------|
B|---------------|
G|-5------7------|
D|-5-(X8)-7-(X8)-|
A|-3------5------|
E|---------------|

e|--------------------------------------------|
B|--------------------------------------------|
G|-9-9-(9)/12-9-7-5-4--9-9-(9)/12-9-7-5-7-5-4-|
D|-9-9-(9)/12-9-7-5-4--9-9-(9)/12-9-7-5-7-5-4-|
A|-7-7-(7)/10-7-5-3-2--7-7-(7)/10-7-5-3-5-3-2-|
E|--------------------------------------------| X 2

e|---------------|
B|---------------|
G|-5------7------|
D|-5-(X8)-7-(X8)-|
A|-3------5------|
E|---------------|

e|---------------------|
B|---------------------|
G|---------------------|
D|---------------------|
A|--7--7-10-7----------|
E|------------10--8-7--| X 12

e|---------------|
B|---------------|
G|-5------7------|
D|-5-(X8)-7-(X8)-|
A|-3------5------|
E|---------------|

Play the chorus over the solo with a second guitar:
e|--------------------------------------------|
B|--------------------------------------------|
G|-9-9-(9)/12-9-7-5-4--9-9-(9)/12-9-7-5-7-5-4-|
D|-9-9-(9)/12-9-7-5-4--9-9-(9)/12-9-7-5-7-5-4-|
A|-7-7-(7)/10-7-5-3-2--7-7-(7)/10-7-5-3-5-3-2-|
E|--------------------------------------------| X 4

Solo:
e|--------------------------------------------------------|
B|--------------------------------------------------------|
G|-9--9--(9)/12-9-7-12~-11~--9--9-(9)/12-9-7-12-14-12-11~-|
D|--------------------------------------------------------|
A|--------------------------------------------------------|
E|--------------------------------------------------------| X 2

e|-12--12-(12)/15-12-10-15~-14~--12-12-(12)/15-12-10-15-17-15-14-|
B|---------------------------------------------------------------|
G|---------------------------------------------------------------|
D|---------------------------------------------------------------|
A|---------------------------------------------------------------|
E|---------------------------------------------------------------|

e|-12-12-(12)/15-12-10-15~-14~--12--12-14-12-14-14-12-------|
B|----------------------------------------------------13-12-|
G|----------------------------------------------------------|
D|----------------------------------------------------------|
A|----------------------------------------------------------|
E|----------------------------------------------------------|

e|---------------|
B|---------------|
G|-5------7------|
D|-5-(X8)-7-(X8)-|
A|-3------5------|
E|---------------|

e|---------------------|
B|---------------------|
G|---------------------|
D|---------------------|
A|--7--7-10-7----------|
E|------------10--8-7--| X 12

e|---------------|
B|---------------|
G|-5------7------|
D|-5-(X8)-7-(X8)-|
A|-3------5------|
E|---------------|

e|--------------------------------------------|
B|--------------------------------------------|
G|-9-9-(9)/12-9-7-5-4--9-9-(9)/12-9-7-5-7-5-4-|
D|-9-9-(9)/12-9-7-5-4--9-9-(9)/12-9-7-5-7-5-4-|
A|-7-7-(7)/10-7-5-3-2--7-7-(7)/10-7-5-3-5-3-2-|
E|--------------------------------------------| X 2

End on:
e|---|
B|---|
G|-9-|
D|-9-|
A|-7-|
E|---|


Текст, аккорды и табулатура для песни "Seven Nation Army (ver 10)", исполняет "White Stripes".
Используемые в песне аккорды можно найти в разделе Как брать аккорды. Аккорды для шестиструнной гитары. Другие песни можно найти на нашем сайте, воспользовавшись алфавитным указателем вверху страницы.


 
Ошибка в тексте? Выделите ошибку и нажмите Ctrl+Enter